  0
SECTION
  2
HEADER
  9
$ACADVER
  1
AC1021
  9
$ACADMAINTVER
 70
    25
  9
$DWGCODEPAGE
  3
ANSI_1252
  9
$INSBASE
 10
0.0
 20
0.0
 30
0.0
  9
$EXTMIN
 10
1.000000000000000E+20
 20
1.000000000000000E+20
 30
1.000000000000000E+20
  9
$EXTMAX
 10
-1.000000000000000E+20
 20
-1.000000000000000E+20
 30
-1.000000000000000E+20
  9
$LIMMIN
 10
0.0
 20
0.0
  9
$LIMMAX
 10
12.0
 20
9.0
  9
$ORTHOMODE
 70
     0
  9
$REGENMODE
 70
     1
  9
$FILLMODE
 70
     1
  9
$QTEXTMODE
 70
     0
  9
$MIRRTEXT
 70
     1
  9
$LTSCALE
 40
1.0
  9
$ATTMODE
 70
     1
  9
$TEXTSIZE
 40
2.5
  9
$TRACEWID
 40
0.05
  9
$TEXTSTYLE
  7
Standard
  9
$CLAYER
  8
0
  9
$CELTYPE
  6
ByLayer
  9
$CECOLOR
 62
    18
  9
$CELTSCALE
 40
1.0
  9
$DISPSILH
 70
     0
  9
$DIMSCALE
 40
1.0
  9
$DIMASZ
 40
5.0
  9
$DIMEXO
 40
0.625
  9
$DIMDLI
 40
0.38
  9
$DIMRND
 40
0.0
  9
$DIMDLE
 40
0.0
  9
$DIMEXE
 40
5.0
  9
$DIMTP
 40
0.0
  9
$DIMTM
 40
0.0
  9
$DIMTXT
 40
5.0
  9
$DIMCEN
 40
0.09
  9
$DIMTSZ
 40
0.0
  9
$DIMTOL
 70
     0
  9
$DIMLIM
 70
     0
  9
$DIMTIH
 70
     1
  9
$DIMTOH
 70
     1
  9
$DIMSE1
 70
     0
  9
$DIMSE2
 70
     0
  9
$DIMTAD
 70
     0
  9
$DIMZIN
 70
     8
  9
$DIMBLK
  1

  9
$DIMASO
 70
     1
  9
$DIMSHO
 70
     1
  9
$DIMPOST
  1

  9
$DIMAPOST
  1

  9
$DIMALT
 70
     0
  9
$DIMALTD
 70
     2
  9
$DIMALTF
 40
25.4
  9
$DIMLFAC
 40
1.0
  9
$DIMTOFL
 70
     0
  9
$DIMTVP
 40
0.0
  9
$DIMTIX
 70
     0
  9
$DIMSOXD
 70
     0
  9
$DIMSAH
 70
     0
  9
$DIMBLK1
  1

  9
$DIMBLK2
  1

  9
$DIMSTYLE
  2
Standard
  9
$DIMCLRD
 70
    18
  9
$DIMCLRE
 70
    18
  9
$DIMCLRT
 70
    18
  9
$DIMTFAC
 40
1.0
  9
$DIMGAP
 40
0.625
  9
$DIMJUST
 70
     0
  9
$DIMSD1
 70
     0
  9
$DIMSD2
 70
     0
  9
$DIMTOLJ
 70
     1
  9
$DIMTZIN
 70
     0
  9
$DIMALTZ
 70
     0
  9
$DIMALTTZ
 70
     0
  9
$DIMUPT
 70
     0
  9
$DIMDEC
 70
     1
  9
$DIMTDEC
 70
     4
  9
$DIMALTU
 70
     2
  9
$DIMALTTD
 70
     2
  9
$DIMTXSTY
  7
Standard
  9
$DIMAUNIT
 70
     0
  9
$DIMADEC
 70
     1
  9
$DIMALTRND
 40
0.0
  9
$DIMAZIN
 70
     3
  9
$DIMDSEP
 70
    46
  9
$DIMATFIT
 70
     3
  9
$DIMFRAC
 70
     0
  9
$DIMLDRBLK
  1

  9
$DIMLUNIT
 70
     2
  9
$DIMLWD
 70
    -2
  9
$DIMLWE
 70
    -2
  9
$DIMTMOVE
 70
     0
  9
$DIMFXL
 40
1.0
  9
$DIMFXLON
 70
     0
  9
$DIMJOGANG
 40
0.7853981633974483
  9
$DIMTFILL
 70
     0
  9
$DIMTFILLCLR
 70
     0
  9
$DIMARCSYM
 70
     0
  9
$DIMLTYPE
  6

  9
$DIMLTEX1
  6

  9
$DIMLTEX2
  6

  9
$LUNITS
 70
     2
  9
$LUPREC
 70
     1
  9
$SKETCHINC
 40
0.1
  9
$FILLETRAD
 40
0.5
  9
$AUNITS
 70
     0
  9
$AUPREC
 70
     1
  9
$MENU
  1
.
  9
$ELEVATION
 40
0.0
  9
$PELEVATION
 40
0.0
  9
$THICKNESS
 40
0.0
  9
$LIMCHECK
 70
     0
  9
$CHAMFERA
 40
0.0
  9
$CHAMFERB
 40
0.0
  9
$CHAMFERC
 40
0.0
  9
$CHAMFERD
 40
0.0
  9
$SKPOLY
 70
     0
  9
$TDCREATE
 40
2457245.857702176
  9
$TDUCREATE
 40
2457245.774368843
  9
$TDUPDATE
 40
2457245.857702361
  9
$TDUUPDATE
 40
2457245.774369028
  9
$TDINDWG
 40
0.0000000116
  9
$TDUSRTIMER
 40
0.0000000116
  9
$USRTIMER
 70
     1
  9
$ANGBASE
 50
0.0
  9
$ANGDIR
 70
     0
  9
$PDMODE
 70
     0
  9
$PDSIZE
 40
0.0
  9
$PLINEWID
 40
0.0
  9
$SPLFRAME
 70
     0
  9
$SPLINETYPE
 70
     6
  9
$SPLINESEGS
 70
     8
  9
$HANDSEED
  5
3B46
  9
$SURFTAB1
 70
     6
  9
$SURFTAB2
 70
     6
  9
$SURFTYPE
 70
     6
  9
$SURFU
 70
     6
  9
$SURFV
 70
     6
  9
$UCSBASE
  2

  9
$UCSNAME
  2

  9
$UCSORG
 10
0.0
 20
0.0
 30
0.0
  9
$UCSXDIR
 10
1.0
 20
0.0
 30
0.0
  9
$UCSYDIR
 10
0.0
 20
1.0
 30
0.0
  9
$UCSORTHOREF
  2

  9
$UCSORTHOVIEW
 70
     0
  9
$UCSORGTOP
 10
0.0
 20
0.0
 30
0.0
  9
$UCSORGBOTTOM
 10
0.0
 20
0.0
 30
0.0
  9
$UCSORGLEFT
 10
0.0
 20
0.0
 30
0.0
  9
$UCSORGRIGHT
 10
0.0
 20
0.0
 30
0.0
  9
$UCSORGFRONT
 10
0.0
 20
0.0
 30
0.0
  9
$UCSORGBACK
 10
0.0
 20
0.0
 30
0.0
  9
$PUCSBASE
  2

  9
$PUCSNAME
  2

  9
$PUCSORG
 10
0.0
 20
0.0
 30
0.0
  9
$PUCSXDIR
 10
1.0
 20
0.0
 30
0.0
  9
$PUCSYDIR
 10
0.0
 20
1.0
 30
0.0
  9
$PUCSORTHOREF
  2

  9
$PUCSORTHOVIEW
 70
     0
  9
$PUCSORGTOP
 10
0.0
 20
0.0
 30
0.0
  9
$PUCSORGBOTTOM
 10
0.0
 20
0.0
 30
0.0
  9
$PUCSORGLEFT
 10
0.0
 20
0.0
 30
0.0
  9
$PUCSORGRIGHT
 10
0.0
 20
0.0
 30
0.0
  9
$PUCSORGFRONT
 10
0.0
 20
0.0
 30
0.0
  9
$PUCSORGBACK
 10
0.0
 20
0.0
 30
0.0
  9
$USERI1
 70
     0
  9
$USERI2
 70
     0
  9
$USERI3
 70
     0
  9
$USERI4
 70
     0
  9
$USERI5
 70
     0
  9
$USERR1
 40
0.0
  9
$USERR2
 40
0.0
  9
$USERR3
 40
0.0
  9
$USERR4
 40
0.0
  9
$USERR5
 40
0.0
  9
$WORLDVIEW
 70
     1
  9
$SHADEDGE
 70
     3
  9
$SHADEDIF
 70
    70
  9
$TILEMODE
 70
     1
  9
$MAXACTVP
 70
    64
  9
$PINSBASE
 10
46.0967811711902
 20
115.8586510163682
 30
0.0
  9
$PLIMCHECK
 70
     0
  9
$PEXTMIN
 10
1.000000000000000E+20
 20
1.000000000000000E+20
 30
1.000000000000000E+20
  9
$PEXTMAX
 10
-1.000000000000000E+20
 20
-1.000000000000000E+20
 30
-1.000000000000000E+20
  9
$PLIMMIN
 10
0.0
 20
0.0
  9
$PLIMMAX
 10
210.0
 20
297.0
  9
$UNITMODE
 70
     0
  9
$VISRETAIN
 70
     1
  9
$PLINEGEN
 70
     0
  9
$PSLTSCALE
 70
     1
  9
$TREEDEPTH
 70
  3020
  9
$CMLSTYLE
  2
Standard
  9
$CMLJUST
 70
     0
  9
$CMLSCALE
 40
1.0
  9
$PROXYGRAPHICS
 70
     1
  9
$MEASUREMENT
 70
     1
  9
$CELWEIGHT
370
    -1
  9
$ENDCAPS
280
     0
  9
$JOINSTYLE
280
     0
  9
$LWDISPLAY
290
     0
  9
$INSUNITS
 70
     4
  9
$HYPERLINKBASE
  1

  9
$STYLESHEET
  1

  9
$XEDIT
290
     1
  9
$CEPSNTYPE
380
     0
  9
$PSTYLEMODE
290
     1
  9
$FINGERPRINTGUID
  2
{C7B230A9-78D6-4EA2-9BF7-8F9A4EE19FBC}
  9
$VERSIONGUID
  2
{FAEB1C32-E019-11D5-929B-00C0DF256EC4}
  9
$EXTNAMES
290
     1
  9
$PSVPSCALE
 40
0.0
  9
$OLESTARTUP
290
     0
  9
$SORTENTS
280
   127
  9
$INDEXCTL
280
     0
  9
$HIDETEXT
280
     1
  9
$XCLIPFRAME
290
     0
  9
$HALOGAP
280
     0
  9
$OBSCOLOR
 70
   257
  9
$OBSLTYPE
280
     0
  9
$INTERSECTIONDISPLAY
280
     0
  9
$INTERSECTIONCOLOR
 70
   257
  9
$DIMASSOC
280
     2
  9
$PROJECTNAME
  1

  9
$CAMERADISPLAY
290
     0
  9
$LENSLENGTH
 40
50.0
  9
$CAMERAHEIGHT
 40
0.0
  9
$STEPSPERSEC
 40
2.0
  9
$STEPSIZE
 40
6.0
  9
$3DDWFPREC
 40
2.0
  9
$PSOLWIDTH
 40
0.25
  9
$PSOLHEIGHT
 40
4.0
  9
$LOFTANG1
 40
1.570796326794897
  9
$LOFTANG2
 40
1.570796326794897
  9
$LOFTMAG1
 40
0.0
  9
$LOFTMAG2
 40
0.0
  9
$LOFTPARAM
 70
     7
  9
$LOFTNORMALS
280
     1
  9
$LATITUDE
 40
37.795
  9
$LONGITUDE
 40
-122.394
  9
$NORTHDIRECTION
 40
0.0
  9
$TIMEZONE
 70
 -8000
  9
$LIGHTGLYPHDISPLAY
280
     1
  9
$TILEMODELIGHTSYNCH
280
     1
  9
$CMATERIAL
347
3AA1
  9
$SOLIDHIST
280
     1
  9
$SHOWHIST
280
     1
  9
$DWFFRAME
280
     2
  9
$DGNFRAME
280
     2
  9
$REALWORLDSCALE
290
     1
  9
$INTERFERECOLOR
 62
   256
  9
$CSHADOW
280
     0
  9
$SHADOWPLANELOCATION
 40
0.0
  0
ENDSEC
  0
SECTION
  2
CLASSES
  0
CLASS
  1
ACDBDICTIONARYWDFLT
  2
AcDbDictionaryWithDefault
  3
ObjectDBX Classes
 90
        0
 91
        4
280
     0
281
     0
  0
CLASS
  1
VISUALSTYLE
  2
AcDbVisualStyle
  3
ObjectDBX Classes
 90
     4095
 91
        4
280
     0
281
     0
  0
CLASS
  1
MATERIAL
  2
AcDbMaterial
  3
ObjectDBX Classes
 90
     1153
 91
        4
280
     0
281
     0
  0
CLASS
  1
SCALE
  2
AcDbScale
  3
ObjectDBX Classes
 90
     1153
 91
        4
280
     0
281
     0
  0
CLASS
  1
SUN
  2
AcDbSun
  3
SCENEOE
 90
     1153
 91
        4
280
     0
281
     0
  0
CLASS
  1
DICTIONARYVAR
  2
AcDbDictionaryVar
  3
ObjectDBX Classes
 90
        0
 91
        4
280
     0
281
     0
  0
ENDSEC
  0
SECTION
  2
TABLES
  0
TABLE
  2
VPORT
  5
3A66
330
0
100
AcDbSymbolTable
 70
     1
  0
VPORT
  5
3A86
330
3A66
100
AcDbSymbolTableRecord
100
AcDbViewportTableRecord
  2
*Active
 70
     0
 10
0.0
 20
0.0
 11
1.0
 21
1.0
 12
10.42990654205607
 22
4.5
 13
0.0
 23
0.0
 14
0.5
 24
0.5
 15
0.5
 25
0.5
 16
0.0
 26
0.0
 36
1.0
 17
0.0
 27
0.0
 37
0.0
 40
9.0
 41
1.972972972850329
 42
50.0
 43
0.0
 44
0.0
 50
0.0
 51
0.0
 71
     0
 72
   100
 73
     1
 74
     3
 75
     0
 76
     0
 77
     0
 78
     0
281
     0
 65
     1
110
0.0
120
0.0
130
0.0
111
1.0
121
0.0
131
0.0
112
0.0
122
1.0
132
0.0
 79
     0
146
0.0
 60
     3
 61
     5
292
     1
282
     1
141
0.0
142
0.0
 63
   250
361
3AC6
  0
ENDTAB
  0
TABLE
  2
LTYPE
  5
3A63
330
0
100
AcDbSymbolTable
 70
    19
  0
LTYPE
  5
3A71
330
3A63
100
AcDbSymbolTableRecord
100
AcDbLinetypeTableRecord
  2
ByBlock
 70
     0
  3

 72
    65
 73
     0
 40
0.0
  0
LTYPE
  5
3A72
330
3A63
100
AcDbSymbolTableRecord
100
AcDbLinetypeTableRecord
  2
ByLayer
 70
     0
  3

 72
    65
 73
     0
 40
0.0
  0
LTYPE
  5
3A73
330
3A63
100
AcDbSymbolTableRecord
100
AcDbLinetypeTableRecord
  2
Continuous
 70
     0
  3
Solid line
 72
    65
 73
     0
 40
0.0
  0
LTYPE
  5
3AF5
330
3A63
100
AcDbSymbolTableRecord
100
AcDbLinetypeTableRecord
  2
BORDER
 70
     0
  3

 72
    65
 73
     6
 40
42.00000000000001
 49
12.0
 74
     0
 49
-6.0
 74
     0
 49
12.0
 74
     0
 49
-5.95
 74
     0
 49
0.1
 74
     0
 49
-5.95
 74
     0
  0
LTYPE
  5
3AF6
330
3A63
100
AcDbSymbolTableRecord
100
AcDbLinetypeTableRecord
  2
BORDER2
 70
     0
  3

 72
    65
 73
     6
 40
21.0
 49
6.0
 74
     0
 49
-3.0
 74
     0
 49
6.0
 74
     0
 49
-2.95
 74
     0
 49
0.1
 74
     0
 49
-2.95
 74
     0
  0
LTYPE
  5
3AF7
330
3A63
100
AcDbSymbolTableRecord
100
AcDbLinetypeTableRecord
  2
BORDERX2
 70
     0
  3

 72
    65
 73
     6
 40
84.0
 49
24.0
 74
     0
 49
-12.0
 74
     0
 49
24.0
 74
     0
 49
-11.95
 74
     0
 49
0.1
 74
     0
 49
-11.95
 74
     0
  0
LTYPE
  5
3AF8
330
3A63
100
AcDbSymbolTableRecord
100
AcDbLinetypeTableRecord
  2
CENTER
 70
     0
  3

 72
    65
 73
     4
 40
50.0
 49
32.0
 74
     0
 49
-6.0
 74
     0
 49
6.0
 74
     0
 49
-6.0
 74
     0
  0
LTYPE
  5
3AF9
330
3A63
100
AcDbSymbolTableRecord
100
AcDbLinetypeTableRecord
  2
CENTER2
 70
     0
  3

 72
    65
 73
     4
 40
25.0
 49
16.0
 74
     0
 49
-3.0
 74
     0
 49
3.0
 74
     0
 49
-3.0
 74
     0
  0
LTYPE
  5
3AFA
330
3A63
100
AcDbSymbolTableRecord
100
AcDbLinetypeTableRecord
  2
CENTERX2
 70
     0
  3

 72
    65
 73
     4
 40
100.0
 49
64.0
 74
     0
 49
-12.0
 74
     0
 49
12.0
 74
     0
 49
-12.0
 74
     0
  0
LTYPE
  5
3AFB
330
3A63
100
AcDbSymbolTableRecord
100
AcDbLinetypeTableRecord
  2
DASHDOT
 70
     0
  3

 72
    65
 73
     4
 40
24.0
 49
12.0
 74
     0
 49
-5.95
 74
     0
 49
0.1
 74
     0
 49
-5.95
 74
     0
  0
LTYPE
  5
3AFC
330
3A63
100
AcDbSymbolTableRecord
100
AcDbLinetypeTableRecord
  2
DASHDOT2
 70
     0
  3

 72
    65
 73
     4
 40
12.0
 49
6.0
 74
     0
 49
-2.95
 74
     0
 49
0.1
 74
     0
 49
-2.95
 74
     0
  0
LTYPE
  5
3AFD
330
3A63
100
AcDbSymbolTableRecord
100
AcDbLinetypeTableRecord
  2
DASHDOTX2
 70
     0
  3

 72
    65
 73
     4
 40
48.0
 49
24.0
 74
     0
 49
-11.95
 74
     0
 49
0.1
 74
     0
 49
-11.95
 74
     0
  0
LTYPE
  5
3AFE
330
3A63
100
AcDbSymbolTableRecord
100
AcDbLinetypeTableRecord
  2
DASHED
 70
     0
  3

 72
    65
 73
     2
 40
18.0
 49
12.0
 74
     0
 49
-6.0
 74
     0
  0
LTYPE
  5
3AFF
330
3A63
100
AcDbSymbolTableRecord
100
AcDbLinetypeTableRecord
  2
DASHED2
 70
     0
  3

 72
    65
 73
     2
 40
9.0
 49
6.0
 74
     0
 49
-3.0
 74
     0
  0
LTYPE
  5
3B00
330
3A63
100
AcDbSymbolTableRecord
100
AcDbLinetypeTableRecord
  2
DASHEDX2
 70
     0
  3

 72
    65
 73
     2
 40
36.0
 49
24.0
 74
     0
 49
-12.0
 74
     0
  0
LTYPE
  5
3B01
330
3A63
100
AcDbSymbolTableRecord
100
AcDbLinetypeTableRecord
  2
DIVIDE
 70
     0
  3

 72
    65
 73
     6
 40
29.99999999999999
 49
12.0
 74
     0
 49
-5.9
 74
     0
 49
0.15
 74
     0
 49
-5.9
 74
     0
 49
0.15
 74
     0
 49
-5.9
 74
     0
  0
LTYPE
  5
3B02
330
3A63
100
AcDbSymbolTableRecord
100
AcDbLinetypeTableRecord
  2
DIVIDE2
 70
     0
  3

 72
    65
 73
     6
 40
15.0
 49
6.0
 74
     0
 49
-2.9
 74
     0
 49
0.15
 74
     0
 49
-2.9
 74
     0
 49
0.15
 74
     0
 49
-2.9
 74
     0
  0
LTYPE
  5
3B03
330
3A63
100
AcDbSymbolTableRecord
100
AcDbLinetypeTableRecord
  2
DIVIDEX2
 70
     0
  3

 72
    65
 73
     6
 40
59.99999999999999
 49
24.0
 74
     0
 49
-11.9
 74
     0
 49
0.15
 74
     0
 49
-11.9
 74
     0
 49
0.15
 74
     0
 49
-11.9
 74
     0
  0
LTYPE
  5
3B04
330
3A63
100
AcDbSymbolTableRecord
100
AcDbLinetypeTableRecord
  2
DOT
 70
     0
  3

 72
    65
 73
     2
 40
6.3
 49
0.1
 74
     0
 49
-6.2
 74
     0
  0
LTYPE
  5
3B05
330
3A63
100
AcDbSymbolTableRecord
100
AcDbLinetypeTableRecord
  2
DOT2
 70
     0
  3

 72
    65
 73
     2
 40
3.2
 49
0.1
 74
     0
 49
-3.1
 74
     0
  0
LTYPE
  5
3B06
330
3A63
100
AcDbSymbolTableRecord
100
AcDbLinetypeTableRecord
  2
DOTX2
 70
     0
  3

 72
    65
 73
     2
 40
12.5
 49
0.1
 74
     0
 49
-12.4
 74
     0
  0
ENDTAB
  0
TABLE
  2
LAYER
  5
3A60
330
0
100
AcDbSymbolTable
 70
    10
  0
LAYER
  5
3A6E
330
3A60
100
AcDbSymbolTableRecord
100
AcDbLayerTableRecord
  2
0
 70
     0
 62
    18
420
        0
  6
Continuous
370
    35
390
3A6D
347
3AA3
  0
LAYER
  5
3B07
330
3A60
100
AcDbSymbolTableRecord
100
AcDbLayerTableRecord
  2
Anlasern
 70
     0
 62
     2
420
 16776960
  6
Continuous
370
    35
390
3A6D
347
3AA3
  0
LAYER
  5
3B08
330
3A60
100
AcDbSymbolTableRecord
100
AcDbLayerTableRecord
  2
Dekoblech
 70
     0
 62
     4
420
    65535
  6
Continuous
370
    35
390
3A6D
347
3AA3
  0
LAYER
  5
3B09
330
3A60
100
AcDbSymbolTableRecord
100
AcDbLayerTableRecord
  2
E-Deckeleinsatz-24V
 70
     0
 62
     5
420
      255
  6
Continuous
370
    35
390
3A6D
347
3AA3
  0
LAYER
  5
3B0A
330
3A60
100
AcDbSymbolTableRecord
100
AcDbLayerTableRecord
  2
Boden
 70
     0
 62
     5
420
      255
  6
Continuous
370
    35
390
3A6D
347
3AA3
  0
LAYER
  5
3B0B
330
3A60
100
AcDbSymbolTableRecord
100
AcDbLayerTableRecord
  2
E-Deckel Einsatz Speakon Island Cube
 70
     0
 62
     5
420
      255
  6
Continuous
370
    35
390
3A6D
347
3AA3
  0
LAYER
  5
3B0C
330
3A60
100
AcDbSymbolTableRecord
100
AcDbLayerTableRecord
  2
E-Deckel Einsatz Schuko Island Cube
 70
     0
 62
     5
420
      255
  6
Continuous
370
    35
390
3A6D
347
3AA3
  0
LAYER
  5
3B0D
330
3A60
100
AcDbSymbolTableRecord
100
AcDbLayerTableRecord
  2
Haube
 70
     0
 62
     5
420
      255
  6
Continuous
370
    35
390
3A6D
347
3AA3
  0
LAYER
  5
3B0E
330
3A60
100
AcDbSymbolTableRecord
100
AcDbLayerTableRecord
  2
Batthalter2
 70
     0
 62
     3
420
    65280
  6
Continuous
370
    35
390
3A6D
347
3AA3
  0
LAYER
  5
3B0F
330
3A60
100
AcDbSymbolTableRecord
100
AcDbLayerTableRecord
  2
WR Halter
 70
     0
 62
     6
420
 16711935
  6
Continuous
370
    35
390
3A6D
347
3AA3
  0
ENDTAB
  0
TABLE
  2
STYLE
  5
3A61
330
0
100
AcDbSymbolTable
 70
     1
  0
STYLE
  5
3A6F
330
3A61
100
AcDbSymbolTableRecord
100
AcDbTextStyleTableRecord
  2
Standard
 70
     0
 40
0.0
 41
1.0
 50
0.0
 71
     0
 42
2.5
  3
txt
  4

  0
ENDTAB
  0
TABLE
  2
VIEW
  5
3A64
330
0
100
AcDbSymbolTable
 70
     0
  0
ENDTAB
  0
TABLE
  2
UCS
  5
3A65
330
0
100
AcDbSymbolTable
 70
     0
  0
ENDTAB
  0
TABLE
  2
APPID
  5
3A67
330
0
100
AcDbSymbolTable
 70
     2
  0
APPID
  5
3A70
330
3A67
100
AcDbSymbolTableRecord
100
AcDbRegAppTableRecord
  2
ACAD
 70
     0
  0
APPID
  5
3AC7
330
3A67
100
AcDbSymbolTableRecord
100
AcDbRegAppTableRecord
  2
QCAD
 70
     0
  0
ENDTAB
  0
TABLE
  2
DIMSTYLE
  5
3A68
330
0
100
AcDbSymbolTable
 70
     2
100
AcDbDimStyleTable
  0
DIMSTYLE
105
3A84
330
3A68
100
AcDbSymbolTableRecord
100
AcDbDimStyleTableRecord
  2
Standard
 70
     0
178
     0
340
3A6F
  0
DIMSTYLE
105
3AF4
330
3A68
100
AcDbSymbolTableRecord
100
AcDbDimStyleTableRecord
  2
QCADDimStyle
 70
     0
 41
5.0
 42
0.625
 44
5.0
 73
     0
 77
     1
140
5.0
147
0.625
178
     0
340
3A6F
  0
ENDTAB
  0
TABLE
  2
BLOCK_RECORD
  5
3A5F
330
0
100
AcDbSymbolTable
 70
     1
  0
BLOCK_RECORD
  5
3A7C
330
3A5F
100
AcDbSymbolTableRecord
100
AcDbBlockTableRecord
  2
*Model_Space
340
3A7F
 70
     0
280
     1
281
     0
  0
BLOCK_RECORD
  5
3A78
330
3A5F
100
AcDbSymbolTableRecord
100
AcDbBlockTableRecord
  2
*Paper_Space
340
3A7B
 70
     0
280
     1
281
     0
  0
BLOCK_RECORD
  5
3A80
330
3A5F
100
AcDbSymbolTableRecord
100
AcDbBlockTableRecord
  2
*Paper_Space0
340
3A83
 70
     0
280
     1
281
     0
  0
ENDTAB
  0
ENDSEC
  0
SECTION
  2
BLOCKS
  0
BLOCK
  5
3A7D
330
3A7C
100
AcDbEntity
  8
0
100
AcDbBlockBegin
  2
*Model_Space
 70
     0
 10
0.0
 20
0.0
 30
0.0
  3
*Model_Space
  1
*Model_Space
  0
ENDBLK
  5
3A7E
330
3A7C
100
AcDbEntity
  8
0
100
AcDbBlockEnd
  0
BLOCK
  5
3A79
330
3A78
100
AcDbEntity
 67
     1
  8
0
100
AcDbBlockBegin
  2
*Paper_Space
 70
     0
 10
0.0
 20
0.0
 30
0.0
  3
*Paper_Space
  1
*Paper_Space
  0
ENDBLK
  5
3A7A
330
3A78
100
AcDbEntity
 67
     1
  8
0
100
AcDbBlockEnd
  0
BLOCK
  5
3A81
330
3A80
100
AcDbEntity
  8
0
100
AcDbBlockBegin
  2
*Paper_Space0
 70
     0
 10
0.0
 20
0.0
 30
0.0
  3
*Paper_Space0
  1
*Paper_Space0
  0
ENDBLK
  5
3A82
330
3A80
100
AcDbEntity
  8
0
100
AcDbBlockEnd
  0
ENDSEC
  0
SECTION
  2
ENTITIES
  0
ARC
  5
23A
330
3A7C
100
AcDbEntity
  8
Boden
100
AcDbCircle
 10
470.0
 20
372.0000000000001
 30
0.0
 40
12.0
100
AcDbArc
 50
0.0
 51
90.00000000000001
  0
ARC
  5
23C
330
3A7C
100
AcDbEntity
  8
Boden
100
AcDbCircle
 10
470.0000000000001
 20
51.96283226220834
 30
0.0
 40
12.0
100
AcDbArc
 50
270.0
 51
0.0
  0
ARC
  5
23D
330
3A7C
100
AcDbEntity
  8
Boden
100
AcDbCircle
 10
139.9628322622083
 20
51.96283226220822
 30
0.0
 40
12.0
100
AcDbArc
 50
180.0
 51
270.0
  0
ARC
  5
240
330
3A7C
100
AcDbEntity
  8
Boden
100
AcDbCircle
 10
139.962832262208
 20
372.0000000000002
 30
0.0
 40
12.0
100
AcDbArc
 50
90.00000000000001
 51
180.0
  0
LINE
  5
241
330
3A7C
100
AcDbEntity
  8
Boden
100
AcDbLine
 10
479.4999999999999
 20
373.8000000000004
 30
0.0
 11
469.9999999999999
 21
373.8000000000004
 31
0.0
  0
LINE
  5
242
330
3A7C
100
AcDbEntity
  8
Boden
100
AcDbLine
 10
469.9999999999999
 20
363.2421012794455
 30
0.0
 11
479.5
 21
363.2421012794451
 31
0.0
  0
LINE
  5
243
330
3A7C
100
AcDbEntity
  8
Boden
100
AcDbLine
 10
130.4628322622082
 20
373.8
 30
0.0
 11
139.9628322622081
 21
373.8000000000001
 31
0.0
  0
LINE
  5
244
330
3A7C
100
AcDbEntity
  8
Boden
100
AcDbLine
 10
139.9628322622082
 20
363.1780261347291
 30
0.0
 11
130.4628322622081
 21
363.1780261347291
 31
0.0
  0
LINE
  5
245
330
3A7C
100
AcDbEntity
  8
Boden
100
AcDbLine
 10
139.9628322622083
 20
60.7472935291116
 30
0.0
 11
130.4628322622083
 21
60.74729352911163
 31
0.0
  0
LINE
  5
246
330
3A7C
100
AcDbEntity
  8
Boden
100
AcDbLine
 10
130.4628322622081
 20
50.16283226220835
 30
0.0
 11
139.9628322622083
 21
50.16283226220821
 31
0.0
  0
LINE
  5
247
330
3A7C
100
AcDbEntity
  8
Boden
100
AcDbLine
 10
470.0
 20
60.72844789831237
 30
0.0
 11
479.5000000000001
 21
60.72844789831248
 31
0.0
  0
LINE
  5
248
330
3A7C
100
AcDbEntity
  8
Boden
100
AcDbLine
 10
479.5000000000002
 20
50.16283226220855
 30
0.0
 11
470.0000000000002
 21
50.16283226220867
 31
0.0
  0
LINE
  5
249
330
3A7C
100
AcDbEntity
  8
Boden
100
AcDbLine
 10
479.4999999999999
 20
373.8000000000004
 30
0.0
 11
479.5
 21
363.2421012794451
 31
0.0
  0
LINE
  5
24A
330
3A7C
100
AcDbEntity
  8
Boden
100
AcDbLine
 10
469.9999999999999
 20
363.2421012794455
 30
0.0
 11
469.9999999999999
 21
373.8000000000004
 31
0.0
  0
LINE
  5
24B
330
3A7C
100
AcDbEntity
  8
Boden
100
AcDbLine
 10
139.9628322622082
 20
363.1780261347291
 30
0.0
 11
139.9628322622081
 21
373.8000000000001
 31
0.0
  0
LINE
  5
24C
330
3A7C
100
AcDbEntity
  8
Boden
100
AcDbLine
 10
130.4628322622082
 20
373.8
 30
0.0
 11
130.4628322622081
 21
363.1780261347291
 31
0.0
  0
LINE
  5
24D
330
3A7C
100
AcDbEntity
  8
Boden
100
AcDbLine
 10
130.4628322622081
 20
50.16283226220835
 30
0.0
 11
130.4628322622083
 21
60.74729352911163
 31
0.0
  0
LINE
  5
24E
330
3A7C
100
AcDbEntity
  8
Boden
100
AcDbLine
 10
139.9628322622083
 20
60.7472935291116
 30
0.0
 11
139.9628322622083
 21
50.16283226220821
 31
0.0
  0
LINE
  5
24F
330
3A7C
100
AcDbEntity
  8
Boden
100
AcDbLine
 10
470.0000000000002
 20
50.16283226220867
 30
0.0
 11
470.0
 21
60.72844789831237
 31
0.0
  0
LINE
  5
250
330
3A7C
100
AcDbEntity
  8
Boden
100
AcDbLine
 10
479.5000000000001
 20
60.72844789831248
 30
0.0
 11
479.5000000000002
 21
50.16283226220855
 31
0.0
  0
ARC
  5
A96
330
3A7C
100
AcDbEntity
  8
Batthalter2
100
AcDbCircle
 10
453.8478641598408
 20
50.96283226220814
 30
0.0
 40
10.0
100
AcDbArc
 50
270.0
 51
0.0
  0
CIRCLE
  5
A97
330
3A7C
100
AcDbEntity
  8
Batthalter2
100
AcDbCircle
 10
452.7789691967737
 20
285.430858083971
 30
0.0
 40
3.3
  0
CIRCLE
  5
A98
330
3A7C
100
AcDbEntity
  8
Batthalter2
100
AcDbCircle
 10
452.7624646570723
 20
85.48529811202474
 30
0.0
 40
3.3
  0
CIRCLE
  5
1D01
330
3A7C
100
AcDbEntity
  8
Boden
100
AcDbCircle
 10
452.6589989667099
 20
132.5666214877948
 30
0.0
 40
3.6
  0
CIRCLE
  5
1D02
330
3A7C
100
AcDbEntity
  8
Boden
100
AcDbCircle
 10
452.7624646570723
 20
332.4775341501837
 30
0.0
 40
3.6
  0
CIRCLE
  5
1D13
330
3A7C
100
AcDbEntity
  8
Boden
100
AcDbCircle
 10
157.2003676051359
 20
132.5224658498169
 30
0.0
 40
3.6
  0
CIRCLE
  5
1D14
330
3A7C
100
AcDbEntity
  8
Boden
100
AcDbCircle
 10
157.1838630654343
 20
332.468025821763
 30
0.0
 40
3.6
  0
ARC
  5
1D4C
330
3A7C
100
AcDbEntity
  8
Batthalter2
100
AcDbCircle
 10
453.8478641598408
 20
319.9628322622081
 30
0.0
 40
10.0
100
AcDbArc
 50
0.0
 51
90.0
  0
LINE
  5
1D54
330
3A7C
100
AcDbEntity
  8
Batthalter2
100
AcDbLine
 10
463.8478641598407
 20
50.96283226220814
 30
0.0
 11
463.8478641598408
 21
319.9628322622079
 31
0.0
  0
ARC
  5
262C
330
3A7C
100
AcDbEntity
  8
Batthalter2
100
AcDbCircle
 10
427.8303613687016
 20
185.4628322622083
 30
0.0
 40
2.005696273428486
100
AcDbArc
 50
85.6808001570158
 51
274.3191998429839
  0
LINE
  5
262D
330
3A7C
100
AcDbEntity
  8
Batthalter2
100
AcDbLine
 10
434.981416131104
 20
313.762832262208
 30
0.0
 11
434.981416131104
 21
187.4628322622081
 31
0.0
  0
LINE
  5
262E
330
3A7C
100
AcDbEntity
  8
Batthalter2
100
AcDbLine
 10
434.981416131104
 20
183.462832262208
 30
0.0
 11
434.9814161311041
 21
57.16283226220824
 31
0.0
  0
LINE
  5
2632
330
3A7C
100
AcDbEntity
  8
Batthalter2
100
AcDbLine
 10
174.9814161311041
 20
187.4628322622083
 30
0.0
 11
174.9814161311041
 21
313.762832262208
 31
0.0
  0
ARC
  5
2635
330
3A7C
100
AcDbEntity
  8
Batthalter2
100
AcDbCircle
 10
156.1149681023672
 20
50.96283226220822
 30
0.0
 40
10.0
100
AcDbArc
 50
180.0
 51
270.0
  0
LINE
  5
2637
330
3A7C
100
AcDbEntity
  8
Batthalter2
100
AcDbLine
 10
146.1149681023674
 20
319.9628322622082
 30
0.0
 11
146.1149681023672
 21
50.96283226220842
 31
0.0
  0
ARC
  5
2638
330
3A7C
100
AcDbEntity
  8
Batthalter2
100
AcDbCircle
 10
156.1149681023674
 20
319.9628322622082
 30
0.0
 40
10.0
100
AcDbArc
 50
90.0
 51
180.0
  0
CIRCLE
  5
263A
330
3A7C
100
AcDbEntity
  8
Batthalter2
100
AcDbCircle
 10
157.1838630654343
 20
85.49480644044533
 30
0.0
 40
3.3
  0
CIRCLE
  5
263B
330
3A7C
100
AcDbEntity
  8
Batthalter2
100
AcDbCircle
 10
157.2003676051359
 20
285.4403664123915
 30
0.0
 40
3.3
  0
ARC
  5
263E
330
3A7C
100
AcDbEntity
  8
Batthalter2
100
AcDbCircle
 10
182.1324708935065
 20
185.462832262208
 30
0.0
 40
2.005696273428486
100
AcDbArc
 50
265.6808001570158
 51
94.31919984298393
  0
LINE
  5
263F
330
3A7C
100
AcDbEntity
  8
Batthalter2
100
AcDbLine
 10
174.9814161311039
 20
57.16283226220824
 30
0.0
 11
174.9814161311041
 21
183.4628322622081
 31
0.0
  0
LINE
  5
2640
330
3A7C
100
AcDbEntity
  8
Batthalter2
100
AcDbLine
 10
453.8478641598408
 20
329.9628322622081
 30
0.0
 11
156.1149681023674
 21
329.9628322622082
 31
0.0
  0
LINE
  5
2641
330
3A7C
100
AcDbEntity
  8
Batthalter2
100
AcDbLine
 10
453.8478641598408
 20
40.96283226220814
 30
0.0
 11
156.1149681023672
 21
40.96283226220824
 31
0.0
  0
LINE
  5
2642
330
3A7C
100
AcDbEntity
  8
Batthalter2
100
AcDbLine
 10
434.9814161311041
 20
57.16283226220824
 30
0.0
 11
174.9814161311039
 21
57.16283226220824
 31
0.0
  0
LINE
  5
2643
330
3A7C
100
AcDbEntity
  8
Batthalter2
100
AcDbLine
 10
174.9814161311041
 20
313.762832262208
 30
0.0
 11
434.981416131104
 21
313.762832262208
 31
0.0
  0
LINE
  5
27E1
330
3A7C
100
AcDbEntity
  8
Batthalter2
100
AcDbLine
 10
181.9814161311041
 20
187.4628322622081
 30
0.0
 11
174.9814161311041
 21
187.4628322622083
 31
0.0
  0
LINE
  5
27E2
330
3A7C
100
AcDbEntity
  8
Batthalter2
100
AcDbLine
 10
174.9814161311041
 20
183.4628322622081
 30
0.0
 11
181.9814161311041
 21
183.4628322622079
 31
0.0
  0
LINE
  5
27E3
330
3A7C
100
AcDbEntity
  8
Batthalter2
100
AcDbLine
 10
427.981416131104
 20
187.4628322622084
 30
0.0
 11
434.981416131104
 21
187.4628322622081
 31
0.0
  0
LINE
  5
27E4
330
3A7C
100
AcDbEntity
  8
Batthalter2
100
AcDbLine
 10
427.981416131104
 20
183.4628322622081
 30
0.0
 11
434.981416131104
 21
183.462832262208
 31
0.0
  0
CIRCLE
  5
27F6
330
3A7C
100
AcDbEntity
  8
Boden
100
AcDbCircle
 10
164.9628322622082
 20
60.96283226220834
 30
0.0
 40
3.2
  0
CIRCLE
  5
27F7
330
3A7C
100
AcDbEntity
  8
Boden
100
AcDbCircle
 10
444.0000000000001
 20
60.96283226220837
 30
0.0
 40
3.2
  0
CIRCLE
  5
27F8
330
3A7C
100
AcDbEntity
  8
Boden
100
AcDbCircle
 10
444.0000000000001
 20
364.0000000000005
 30
0.0
 40
3.2
  0
CIRCLE
  5
27F9
330
3A7C
100
AcDbEntity
  8
Boden
100
AcDbCircle
 10
164.9628322622082
 20
364.0000000000006
 30
0.0
 40
3.2
  0
LINE
  5
2802
330
3A7C
100
AcDbEntity
  8
Boden
100
AcDbLine
 10
181.9628322622084
 20
-300.0371677377917
 30
0.0
 11
428.0000000000002
 21
-300.0371677377916
 31
0.0
  0
LINE
  5
2803
330
3A7C
100
AcDbEntity
  8
Boden
100
AcDbLine
 10
181.9628322622081
 20
724.0000000000001
 30
0.0
 11
427.9999999999995
 21
724.0000000000005
 31
0.0
  0
CIRCLE
  5
2827
330
3A7C
100
AcDbEntity
  8
Boden
100
AcDbCircle
 10
445.0162271313519
 20
-197.5371677377915
 30
0.0
 40
2.7
  0
CIRCLE
  5
2828
330
3A7C
100
AcDbEntity
  8
Boden
100
AcDbCircle
 10
164.9543221406981
 20
-197.5371677377918
 30
0.0
 40
2.7
  0
CIRCLE
  5
282A
330
3A7C
100
AcDbEntity
  8
Boden
100
AcDbCircle
 10
304.981416131104
 20
621.5000000000001
 30
0.0
 40
2.7
  0
CIRCLE
  5
282B
330
3A7C
100
AcDbEntity
  8
Boden
100
AcDbCircle
 10
445.008888906095
 20
621.5000000000003
 30
0.0
 40
2.7
  0
CIRCLE
  5
282C
330
3A7C
100
AcDbEntity
  8
Boden
100
AcDbCircle
 10
164.907360185578
 20
621.5000000000001
 30
0.0
 40
2.7
  0
CIRCLE
  5
2835
330
3A7C
100
AcDbEntity
  8
WR Halter
100
AcDbCircle
 10
304.9814161311044
 20
983.5
 30
0.0
 40
2.7
  0
CIRCLE
  5
2836
330
3A7C
100
AcDbEntity
  8
WR Halter
100
AcDbCircle
 10
445.0744641457624
 20
983.4999999999999
 30
0.0
 40
2.7
  0
CIRCLE
  5
2837
330
3A7C
100
AcDbEntity
  8
WR Halter
100
AcDbCircle
 10
164.986345057881
 20
983.5000000000001
 30
0.0
 40
2.7
  0
CIRCLE
  5
283D
330
3A7C
100
AcDbEntity
  8
WR Halter
100
AcDbCircle
 10
445.0162271313519
 20
621.4999999999999
 30
0.0
 40
2.7
  0
CIRCLE
  5
283E
330
3A7C
100
AcDbEntity
  8
WR Halter
100
AcDbCircle
 10
164.9543221406981
 20
621.5000000000001
 30
0.0
 40
2.7
  0
LINE
  5
2845
330
3A7C
100
AcDbEntity
  8
WR Halter
100
AcDbLine
 10
152.9628322622084
 20
611.506201850721
 30
0.0
 11
457.0000000000002
 21
611.5062018507208
 31
0.0
  0
LINE
  5
2846
330
3A7C
100
AcDbEntity
  8
WR Halter
100
AcDbLine
 10
457.0000000000003
 20
993.4999999999999
 30
0.0
 11
152.9628322622085
 21
993.5000000000001
 31
0.0
  0
LINE
  5
2850
330
3A7C
100
AcDbEntity
  8
WR Halter
100
AcDbLine
 10
142.9628322622085
 20
963.5000000000001
 30
0.0
 11
132.9628322622085
 21
963.5000000000001
 31
0.0
  0
LINE
  5
2852
330
3A7C
100
AcDbEntity
  8
WR Halter
100
AcDbLine
 10
467.0000000000003
 20
963.4999999999999
 30
0.0
 11
477.0000000000003
 21
963.4999999999999
 31
0.0
  0
LINE
  5
2853
330
3A7C
100
AcDbEntity
  8
WR Halter
100
AcDbLine
 10
477.0000000000002
 20
641.4999999999999
 30
0.0
 11
467.0000000000002
 21
641.4999999999999
 31
0.0
  0
LINE
  5
2856
330
3A7C
100
AcDbEntity
  8
WR Halter
100
AcDbLine
 10
142.9628322622084
 20
641.5000000000001
 30
0.0
 11
132.9628322622084
 21
641.5000000000001
 31
0.0
  0
LINE
  5
2861
330
3A7C
100
AcDbEntity
  8
WR Halter
100
AcDbLine
 10
142.9628322622084
 20
632.5000000000001
 30
0.0
 11
144.4628322622084
 21
631.5000000000001
 31
0.0
  0
LINE
  5
2862
330
3A7C
100
AcDbEntity
  8
WR Halter
100
AcDbLine
 10
144.4628322622084
 20
631.5000000000001
 30
0.0
 11
142.9628322622084
 21
630.5
 31
0.0
  0
LINE
  5
2863
330
3A7C
100
AcDbEntity
  8
WR Halter
100
AcDbLine
 10
467.0000000000001
 20
632.4999999999998
 30
0.0
 11
465.5000000000002
 21
631.4999999999999
 31
0.0
  0
LINE
  5
2864
330
3A7C
100
AcDbEntity
  8
WR Halter
100
AcDbLine
 10
465.5000000000002
 20
631.4999999999999
 30
0.0
 11
467.0000000000001
 21
630.4999999999998
 31
0.0
  0
LINE
  5
2865
330
3A7C
100
AcDbEntity
  8
WR Halter
100
AcDbLine
 10
467.0000000000003
 20
974.4999999999999
 30
0.0
 11
465.5000000000003
 21
973.4999999999999
 31
0.0
  0
LINE
  5
2866
330
3A7C
100
AcDbEntity
  8
WR Halter
100
AcDbLine
 10
465.5000000000003
 20
973.4999999999999
 30
0.0
 11
467.0000000000003
 21
972.5
 31
0.0
  0
LINE
  5
2867
330
3A7C
100
AcDbEntity
  8
WR Halter
100
AcDbLine
 10
142.9628322622085
 20
974.5
 30
0.0
 11
144.4628322622085
 21
973.5000000000001
 31
0.0
  0
LINE
  5
2868
330
3A7C
100
AcDbEntity
  8
WR Halter
100
AcDbLine
 10
144.4628322622085
 20
973.5000000000001
 30
0.0
 11
142.9628322622085
 21
972.5000000000001
 31
0.0
  0
LINE
  5
2870
330
3A7C
100
AcDbEntity
  8
WR Halter
100
AcDbLine
 10
467.0000000000003
 20
974.4999999999999
 30
0.0
 11
467.0000000000003
 21
983.4999999999998
 31
0.0
  0
LINE
  5
2871
330
3A7C
100
AcDbEntity
  8
WR Halter
100
AcDbLine
 10
142.9628322622085
 20
983.5
 30
0.0
 11
142.9628322622085
 21
974.5
 31
0.0
  0
ARC
  5
287C
330
3A7C
100
AcDbEntity
  8
WR Halter
100
AcDbCircle
 10
132.9628322622085
 20
953.5000000000001
 30
0.0
 40
10.0
100
AcDbArc
 50
90.0
 51
180.0
  0
ARC
  5
287D
330
3A7C
100
AcDbEntity
  8
WR Halter
100
AcDbCircle
 10
132.9628322622084
 20
651.5000000000001
 30
0.0
 40
10.0
100
AcDbArc
 50
180.0
 51
270.0
  0
ARC
  5
287E
330
3A7C
100
AcDbEntity
  8
WR Halter
100
AcDbCircle
 10
152.9628322622084
 20
621.506201850721
 30
0.0
 40
10.0
100
AcDbArc
 50
180.0
 51
270.0
  0
ARC
  5
287F
330
3A7C
100
AcDbEntity
  8
WR Halter
100
AcDbCircle
 10
457.0000000000002
 20
621.5062018507208
 30
0.0
 40
10.0
100
AcDbArc
 50
270.0
 51
0.0
  0
ARC
  5
2880
330
3A7C
100
AcDbEntity
  8
WR Halter
100
AcDbCircle
 10
477.0000000000002
 20
651.4999999999999
 30
0.0
 40
10.0
100
AcDbArc
 50
270.0
 51
0.0
  0
ARC
  5
2881
330
3A7C
100
AcDbEntity
  8
WR Halter
100
AcDbCircle
 10
477.0000000000003
 20
953.4999999999998
 30
0.0
 40
10.0
100
AcDbArc
 50
0.0
 51
90.0
  0
ARC
  5
2882
330
3A7C
100
AcDbEntity
  8
WR Halter
100
AcDbCircle
 10
457.0000000000003
 20
983.4999999999998
 30
0.0
 40
10.0
100
AcDbArc
 50
0.0
 51
90.0
  0
ARC
  5
2883
330
3A7C
100
AcDbEntity
  8
WR Halter
100
AcDbCircle
 10
152.9628322622085
 20
983.5
 30
0.0
 40
10.0
100
AcDbArc
 50
90.00000000000016
 51
180.0
  0
CIRCLE
  5
2894
330
3A7C
100
AcDbEntity
  8
WR Halter
100
AcDbCircle
 10
314.3000000000005
 20
961.3806708453178
 30
0.0
 40
2.2
  0
CIRCLE
  5
2895
330
3A7C
100
AcDbEntity
  8
WR Halter
100
AcDbCircle
 10
346.3000000000005
 20
961.3806708453178
 30
0.0
 40
2.2
  0
CIRCLE
  5
2896
330
3A7C
100
AcDbEntity
  8
WR Halter
100
AcDbCircle
 10
346.3000000000004
 20
929.3806708453178
 30
0.0
 40
2.2
  0
CIRCLE
  5
2897
330
3A7C
100
AcDbEntity
  8
WR Halter
100
AcDbCircle
 10
314.3000000000004
 20
929.3806708453178
 30
0.0
 40
2.2
  0
CIRCLE
  5
2898
330
3A7C
100
AcDbEntity
  8
WR Halter
100
AcDbCircle
 10
330.3000000000005
 20
945.380670845318
 30
0.0
 40
18.0
  0
LINE
  5
289C
330
3A7C
100
AcDbEntity
  8
WR Halter
100
AcDbLine
 10
431.952165895533
 20
637.4898005105063
 30
0.0
 11
431.952165895533
 21
649.3987947754102
 31
0.0
  0
LINE
  5
289D
330
3A7C
100
AcDbEntity
  8
WR Halter
100
AcDbLine
 10
431.952165895533
 20
649.3987947754102
 30
0.0
 11
401.0411226262485
 21
649.3987947754102
 31
0.0
  0
LINE
  5
289E
330
3A7C
100
AcDbEntity
  8
WR Halter
100
AcDbLine
 10
401.0411226262485
 20
649.3987947754102
 30
0.0
 11
401.0411226262485
 21
637.4898005105063
 31
0.0
  0
LINE
  5
289F
330
3A7C
100
AcDbEntity
  8
WR Halter
100
AcDbLine
 10
401.0411226262485
 20
637.4898005105063
 30
0.0
 11
431.952165895533
 21
637.4898005105063
 31
0.0
  0
CIRCLE
  5
28A8
330
3A7C
100
AcDbEntity
  8
WR Halter
100
AcDbCircle
 10
383.2131911524204
 20
960.5052445729516
 30
0.0
 40
6.2
  0
CIRCLE
  5
28B0
330
3A7C
100
AcDbEntity
  8
Boden
100
AcDbCircle
 10
321.9323430132335
 20
-118.5420012454652
 30
0.0
 40
2.1
  0
CIRCLE
  5
28B1
330
3A7C
100
AcDbEntity
  8
Boden
100
AcDbCircle
 10
231.9323430132335
 20
-174.5420012454653
 30
0.0
 40
2.1
  0
CIRCLE
  5
28B2
330
3A7C
100
AcDbEntity
  8
Boden
100
AcDbCircle
 10
287.9323430132334
 20
-174.5420012454653
 30
0.0
 40
2.1
  0
CIRCLE
  5
28B3
330
3A7C
100
AcDbEntity
  8
Boden
100
AcDbCircle
 10
287.9323430132334
 20
-118.5420012454653
 30
0.0
 40
2.1
  0
CIRCLE
  5
28B4
330
3A7C
100
AcDbEntity
  8
Boden
100
AcDbCircle
 10
231.9323430132335
 20
-118.5420012454652
 30
0.0
 40
2.1
  0
CIRCLE
  5
28B7
330
3A7C
100
AcDbEntity
  8
Boden
100
AcDbCircle
 10
321.9323430132335
 20
-174.5420012454653
 30
0.0
 40
2.1
  0
CIRCLE
  5
28B8
330
3A7C
100
AcDbEntity
  8
Boden
100
AcDbCircle
 10
377.9323430132334
 20
-174.5420012454652
 30
0.0
 40
2.1
  0
CIRCLE
  5
28B9
330
3A7C
100
AcDbEntity
  8
Boden
100
AcDbCircle
 10
377.9323430132333
 20
-118.5420012454653
 30
0.0
 40
2.1
  0
LINE
  5
28BB
330
3A7C
100
AcDbEntity
  8
E-Deckel Einsatz Speakon Island Cube
100
AcDbLine
 10
219.9323430132335
 20
581.0048335076737
 30
0.0
 11
219.9323430132335
 21
511.0048335076737
 31
0.0
  0
ARC
  5
28BC
330
3A7C
100
AcDbEntity
  8
E-Deckel Einsatz Speakon Island Cube
100
AcDbCircle
 10
224.9323430132335
 20
581.0048335076737
 30
0.0
 40
5.0
100
AcDbArc
 50
90.0
 51
180.0
  0
ARC
  5
28BD
330
3A7C
100
AcDbEntity
  8
E-Deckel Einsatz Speakon Island Cube
100
AcDbCircle
 10
294.9323430132335
 20
581.0048335076737
 30
0.0
 40
5.0
100
AcDbArc
 50
0.0
 51
90.0
  0
ARC
  5
28BE
330
3A7C
100
AcDbEntity
  8
E-Deckel Einsatz Speakon Island Cube
100
AcDbCircle
 10
294.9323430132335
 20
511.0048335076737
 30
0.0
 40
5.0
100
AcDbArc
 50
270.0
 51
0.0
  0
ARC
  5
28BF
330
3A7C
100
AcDbEntity
  8
E-Deckel Einsatz Speakon Island Cube
100
AcDbCircle
 10
224.9323430132335
 20
511.0048335076737
 30
0.0
 40
5.0
100
AcDbArc
 50
180.0
 51
270.0
  0
CIRCLE
  5
28C0
330
3A7C
100
AcDbEntity
  8
E-Deckel Einsatz Speakon Island Cube
100
AcDbCircle
 10
231.9323430132335
 20
574.0048335076737
 30
0.0
 40
2.1
  0
CIRCLE
  5
28C1
330
3A7C
100
AcDbEntity
  8
E-Deckel Einsatz Speakon Island Cube
100
AcDbCircle
 10
287.9323430132335
 20
574.0048335076737
 30
0.0
 40
2.1
  0
CIRCLE
  5
28C3
330
3A7C
100
AcDbEntity
  8
E-Deckel Einsatz Speakon Island Cube
100
AcDbCircle
 10
287.9323430132335
 20
518.0048335076737
 30
0.0
 40
2.1
  0
CIRCLE
  5
28C5
330
3A7C
100
AcDbEntity
  8
E-Deckel Einsatz Speakon Island Cube
100
AcDbCircle
 10
231.9323430132335
 20
518.0048335076737
 30
0.0
 40
2.1
  0
LINE
  5
28C6
330
3A7C
100
AcDbEntity
  8
E-Deckel Einsatz Speakon Island Cube
100
AcDbLine
 10
224.9323430132335
 20
506.0048335076737
 30
0.0
 11
294.9323430132335
 21
506.0048335076737
 31
0.0
  0
LINE
  5
28C7
330
3A7C
100
AcDbEntity
  8
E-Deckel Einsatz Speakon Island Cube
100
AcDbLine
 10
299.9323430132335
 20
511.0048335076737
 30
0.0
 11
299.9323430132335
 21
581.0048335076737
 31
0.0
  0
LINE
  5
28C8
330
3A7C
100
AcDbEntity
  8
E-Deckel Einsatz Speakon Island Cube
100
AcDbLine
 10
294.9323430132335
 20
586.0048335076737
 30
0.0
 11
224.9323430132335
 21
586.0048335076737
 31
0.0
  0
CIRCLE
  5
28CC
330
3A7C
100
AcDbEntity
  8
E-Deckel Einsatz Schuko Island Cube
100
AcDbCircle
 10
330.9323430132335
 20
527.0048335076737
 30
0.0
 40
1.5
  0
LINE
  5
28CD
330
3A7C
100
AcDbEntity
  8
E-Deckel Einsatz Schuko Island Cube
100
AcDbLine
 10
314.9323430132335
 20
506.0048335076737
 30
0.0
 11
384.9323430132335
 21
506.0048335076737
 31
0.0
  0
LINE
  5
28CE
330
3A7C
100
AcDbEntity
  8
E-Deckel Einsatz Schuko Island Cube
100
AcDbLine
 10
389.9323430132335
 20
511.0048335076737
 30
0.0
 11
389.9323430132335
 21
581.0048335076737
 31
0.0
  0
LINE
  5
28CF
330
3A7C
100
AcDbEntity
  8
E-Deckel Einsatz Schuko Island Cube
100
AcDbLine
 10
384.9323430132335
 20
586.0048335076737
 30
0.0
 11
314.9323430132335
 21
586.0048335076737
 31
0.0
  0
LINE
  5
28D0
330
3A7C
100
AcDbEntity
  8
E-Deckel Einsatz Schuko Island Cube
100
AcDbLine
 10
309.9323430132335
 20
581.0048335076737
 30
0.0
 11
309.9323430132335
 21
511.0048335076737
 31
0.0
  0
ARC
  5
28D1
330
3A7C
100
AcDbEntity
  8
E-Deckel Einsatz Schuko Island Cube
100
AcDbCircle
 10
314.9323430132335
 20
581.0048335076737
 30
0.0
 40
5.0
100
AcDbArc
 50
90.0
 51
180.0
  0
ARC
  5
28D2
330
3A7C
100
AcDbEntity
  8
E-Deckel Einsatz Schuko Island Cube
100
AcDbCircle
 10
384.9323430132335
 20
581.0048335076737
 30
0.0
 40
5.0
100
AcDbArc
 50
0.0
 51
90.0
  0
ARC
  5
28D3
330
3A7C
100
AcDbEntity
  8
E-Deckel Einsatz Schuko Island Cube
100
AcDbCircle
 10
384.9323430132335
 20
511.0048335076737
 30
0.0
 40
5.0
100
AcDbArc
 50
270.0
 51
0.0
  0
ARC
  5
28D4
330
3A7C
100
AcDbEntity
  8
E-Deckel Einsatz Schuko Island Cube
100
AcDbCircle
 10
314.9323430132335
 20
511.0048335076737
 30
0.0
 40
5.0
100
AcDbArc
 50
180.0
 51
270.0
  0
CIRCLE
  5
28D5
330
3A7C
100
AcDbEntity
  8
E-Deckel Einsatz Schuko Island Cube
100
AcDbCircle
 10
349.9323430132335
 20
546.0048335076737
 30
0.0
 40
22.0
  0
CIRCLE
  5
28D6
330
3A7C
100
AcDbEntity
  8
E-Deckel Einsatz Schuko Island Cube
100
AcDbCircle
 10
321.9323430132335
 20
574.0048335076737
 30
0.0
 40
2.1
  0
CIRCLE
  5
28D7
330
3A7C
100
AcDbEntity
  8
E-Deckel Einsatz Schuko Island Cube
100
AcDbCircle
 10
377.9323430132335
 20
574.0048335076737
 30
0.0
 40
2.1
  0
CIRCLE
  5
28D8
330
3A7C
100
AcDbEntity
  8
E-Deckel Einsatz Schuko Island Cube
100
AcDbCircle
 10
377.9323430132335
 20
518.0048335076737
 30
0.0
 40
2.1
  0
CIRCLE
  5
28D9
330
3A7C
100
AcDbEntity
  8
E-Deckel Einsatz Schuko Island Cube
100
AcDbCircle
 10
321.9323430132335
 20
518.0048335076737
 30
0.0
 40
2.1
  0
CIRCLE
  5
28DA
330
3A7C
100
AcDbEntity
  8
E-Deckel Einsatz Schuko Island Cube
100
AcDbCircle
 10
330.9323430132335
 20
565.0048335076737
 30
0.0
 40
1.5
  0
CIRCLE
  5
28DB
330
3A7C
100
AcDbEntity
  8
E-Deckel Einsatz Schuko Island Cube
100
AcDbCircle
 10
368.9323430132335
 20
565.0048335076737
 30
0.0
 40
1.5
  0
CIRCLE
  5
28DC
330
3A7C
100
AcDbEntity
  8
E-Deckel Einsatz Schuko Island Cube
100
AcDbCircle
 10
368.9323430132335
 20
527.0048335076737
 30
0.0
 40
1.5
  0
LINE
  5
28E3
330
3A7C
100
AcDbEntity
  8
WR Halter
100
AcDbLine
 10
142.9628322622084
 20
627.606201850721
 30
0.0
 11
142.9628322622084
 21
630.5
 31
0.0
  0
LINE
  5
28E4
330
3A7C
100
AcDbEntity
  8
WR Halter
100
AcDbLine
 10
467.0000000000002
 20
627.6062018507208
 30
0.0
 11
467.0000000000001
 21
630.4999999999998
 31
0.0
  0
CIRCLE
  5
28E5
330
3A7C
100
AcDbEntity
  8
E-Deckel Einsatz Speakon Island Cube
100
AcDbCircle
 10
259.9323430132335
 20
546.0048335076737
 30
0.0
 40
15.6
  0
CIRCLE
  5
28EC
330
3A7C
100
AcDbEntity
  8
E-Deckel Einsatz Speakon Island Cube
100
AcDbCircle
 10
245.3323430132335
 20
560.6048335076738
 30
0.0
 40
1.7
  0
CIRCLE
  5
28ED
330
3A7C
100
AcDbEntity
  8
E-Deckel Einsatz Speakon Island Cube
100
AcDbCircle
 10
274.5323430132335
 20
560.6048335076738
 30
0.0
 40
1.7
  0
CIRCLE
  5
28EE
330
3A7C
100
AcDbEntity
  8
E-Deckel Einsatz Speakon Island Cube
100
AcDbCircle
 10
274.5323430132335
 20
531.4048335076736
 30
0.0
 40
1.7
  0
CIRCLE
  5
28EF
330
3A7C
100
AcDbEntity
  8
E-Deckel Einsatz Speakon Island Cube
100
AcDbCircle
 10
245.3323430132335
 20
531.4048335076736
 30
0.0
 40
1.7
  0
LINE
  5
29B6
330
3A7C
100
AcDbEntity
  8
E-Deckeleinsatz-24V
100
AcDbLine
 10
475.9874287006689
 20
581.1695425654482
 30
0.0
 11
475.9874287006689
 21
511.1695425654482
 31
0.0
  0
ARC
  5
29B8
330
3A7C
100
AcDbEntity
  8
E-Deckeleinsatz-24V
100
AcDbCircle
 10
480.9874287006689
 20
581.1695425654482
 30
0.0
 40
5.0
100
AcDbArc
 50
90.0
 51
180.0
  0
ARC
  5
29BA
330
3A7C
100
AcDbEntity
  8
E-Deckeleinsatz-24V
100
AcDbCircle
 10
550.9874287006689
 20
581.1695425654482
 30
0.0
 40
5.0
100
AcDbArc
 50
0.0
 51
90.0
  0
ARC
  5
29BC
330
3A7C
100
AcDbEntity
  8
E-Deckeleinsatz-24V
100
AcDbCircle
 10
550.9874287006689
 20
511.1695425654482
 30
0.0
 40
5.0
100
AcDbArc
 50
270.0
 51
0.0
  0
ARC
  5
29BD
330
3A7C
100
AcDbEntity
  8
E-Deckeleinsatz-24V
100
AcDbCircle
 10
480.9874287006689
 20
511.1695425654482
 30
0.0
 40
5.0
100
AcDbArc
 50
180.0
 51
270.0
  0
CIRCLE
  5
29BE
330
3A7C
100
AcDbEntity
  8
E-Deckeleinsatz-24V
100
AcDbCircle
 10
487.9874287006689
 20
574.1695425654482
 30
0.0
 40
2.1
  0
CIRCLE
  5
29BF
330
3A7C
100
AcDbEntity
  8
E-Deckeleinsatz-24V
100
AcDbCircle
 10
543.9874287006689
 20
574.1695425654482
 30
0.0
 40
2.1
  0
CIRCLE
  5
29C0
330
3A7C
100
AcDbEntity
  8
E-Deckeleinsatz-24V
100
AcDbCircle
 10
543.9874287006689
 20
518.1695425654482
 30
0.0
 40
2.1
  0
CIRCLE
  5
29C1
330
3A7C
100
AcDbEntity
  8
E-Deckeleinsatz-24V
100
AcDbCircle
 10
487.9874287006689
 20
518.1695425654482
 30
0.0
 40
2.1
  0
LINE
  5
29C2
330
3A7C
100
AcDbEntity
  8
E-Deckeleinsatz-24V
100
AcDbLine
 10
480.9874287006689
 20
506.1695425654482
 30
0.0
 11
550.9874287006689
 21
506.1695425654482
 31
0.0
  0
LINE
  5
29C3
330
3A7C
100
AcDbEntity
  8
E-Deckeleinsatz-24V
100
AcDbLine
 10
555.9874287006689
 20
511.1695425654482
 30
0.0
 11
555.9874287006689
 21
581.1695425654482
 31
0.0
  0
LINE
  5
29C4
330
3A7C
100
AcDbEntity
  8
E-Deckeleinsatz-24V
100
AcDbLine
 10
550.9874287006689
 20
586.1695425654482
 30
0.0
 11
480.9874287006689
 21
586.1695425654482
 31
0.0
  0
CIRCLE
  5
29CA
330
3A7C
100
AcDbEntity
  8
E-Deckeleinsatz-24V
100
AcDbCircle
 10
506.4874287006689
 20
546.1695425654482
 30
0.0
 40
6.3
  0
CIRCLE
  5
29CB
330
3A7C
100
AcDbEntity
  8
E-Deckeleinsatz-24V
100
AcDbCircle
 10
525.4874287006689
 20
546.1695425654482
 30
0.0
 40
6.3
  0
ARC
  5
29ED
330
3A7C
100
AcDbEntity
  8
Boden
100
AcDbCircle
 10
181.9628322622084
 20
-260.0371677377917
 30
0.0
 40
40.0
100
AcDbArc
 50
180.0
 51
270.0000000000001
  0
ARC
  5
29EE
330
3A7C
100
AcDbEntity
  8
Boden
100
AcDbCircle
 10
428.0000000000002
 20
-260.0371677377915
 30
0.0
 40
40.0
100
AcDbArc
 50
270.0
 51
0.0
  0
ARC
  5
29EF
330
3A7C
100
AcDbEntity
  8
Boden
100
AcDbCircle
 10
427.9999999999998
 20
684.0000000000003
 30
0.0
 40
40.0
100
AcDbArc
 50
0.0
 51
90.00000000000011
  0
ARC
  5
29F0
330
3A7C
100
AcDbEntity
  8
Boden
100
AcDbCircle
 10
181.9628322622081
 20
684.0000000000001
 30
0.0
 40
40.0
100
AcDbArc
 50
90.00000000000011
 51
180.0
  0
LINE
  5
2A64
330
3A7C
100
AcDbEntity
  8
Boden
100
AcDbLine
 10
470.0000000000001
 20
39.96283226220854
 30
0.0
 11
468.0000000000001
 21
39.96283226220837
 31
0.0
  0
LINE
  5
2A65
330
3A7C
100
AcDbEntity
  8
Boden
100
AcDbLine
 10
469.9999999999999
 20
384.0000000000005
 30
0.0
 11
468.0
 21
384.0000000000002
 31
0.0
  0
LINE
  5
2A66
330
3A7C
100
AcDbEntity
  8
Boden
100
AcDbLine
 10
141.9628322622081
 20
384.0000000000001
 30
0.0
 11
139.9628322622081
 21
384.0000000000001
 31
0.0
  0
LINE
  5
2A67
330
3A7C
100
AcDbEntity
  8
Boden
100
AcDbLine
 10
141.9628322622083
 20
39.96283226220822
 30
0.0
 11
139.9628322622083
 21
39.96283226220822
 31
0.0
  0
CIRCLE
  5
2A72
330
3A7C
100
AcDbEntity
  8
Haube
100
AcDbCircle
 10
-177.0671677377917
 20
368.5000000000006
 30
0.0
 40
4.0
  0
CIRCLE
  5
2A73
330
3A7C
100
AcDbEntity
  8
Haube
100
AcDbCircle
 10
-177.0671677377918
 20
55.46283226220822
 30
0.0
 40
4.0
  0
CIRCLE
  5
2A74
330
3A7C
100
AcDbEntity
  8
Haube
100
AcDbCircle
 10
787.0299999999999
 20
55.46283226220803
 30
0.0
 40
4.0
  0
CIRCLE
  5
2A75
330
3A7C
100
AcDbEntity
  8
Haube
100
AcDbCircle
 10
787.0300000000001
 20
368.4999999999999
 30
0.0
 40
4.0
  0
ARC
  5
2A7A
330
3A7C
100
AcDbEntity
  8
Haube
100
AcDbCircle
 10
-179.0371677377916
 20
380.6613399074684
 30
0.0
 40
5.0
100
AcDbArc
 50
98.10155438466333
 51
180.0
  0
ARC
  5
2A7B
330
3A7C
100
AcDbEntity
  8
Haube
100
AcDbCircle
 10
-179.0371677377918
 20
43.30149235474035
 30
0.0
 40
5.0
100
AcDbArc
 50
180.0
 51
261.8984456153363
  0
ARC
  5
2A7C
330
3A7C
100
AcDbEntity
  8
Haube
100
AcDbCircle
 10
789.0
 20
43.30149235474015
 30
0.0
 40
5.0
100
AcDbArc
 50
278.1015543846627
 51
0.0
  0
ARC
  5
2A7D
330
3A7C
100
AcDbEntity
  8
Haube
100
AcDbCircle
 10
789.0000000000002
 20
380.6613399074677
 30
0.0
 40
5.0
100
AcDbArc
 50
0.0
 51
81.89844561533604
  0
LINE
  5
2ACA
330
3A7C
100
AcDbEntity
  8
Boden
100
AcDbLine
 10
165.9628322622083
 20
-2.037167737791776
 30
0.0
 11
165.9628322622083
 21
-3.037167737791776
 31
0.0
  0
LINE
  5
2ACB
330
3A7C
100
AcDbEntity
  8
Boden
100
AcDbLine
 10
205.9628322622083
 20
-3.037167737791805
 30
0.0
 11
205.9628322622083
 21
-2.037167737791805
 31
0.0
  0
LINE
  5
2ACC
330
3A7C
100
AcDbEntity
  8
Boden
100
AcDbLine
 10
444.0000000000001
 20
-2.03716773779152
 30
0.0
 11
444.0000000000001
 21
-3.037167737791634
 31
0.0
  0
LINE
  5
2ACD
330
3A7C
100
AcDbEntity
  8
Boden
100
AcDbLine
 10
404.0000000000001
 20
-2.037167737791549
 30
0.0
 11
404.0000000000001
 21
-3.037167737791549
 31
0.0
  0
ARC
  5
2ACE
330
3A7C
100
AcDbEntity
  8
Boden
100
AcDbCircle
 10
167.9628322622083
 20
-3.037167737791776
 30
0.0
 40
2.0
100
AcDbArc
 50
180.0
 51
270.0
  0
ARC
  5
2ACF
330
3A7C
100
AcDbEntity
  8
Boden
100
AcDbCircle
 10
167.9628322622083
 20
-2.037167737791776
 30
0.0
 40
2.0
100
AcDbArc
 50
90.00000000000001
 51
180.0
  0
ARC
  5
2AD0
330
3A7C
100
AcDbEntity
  8
Boden
100
AcDbCircle
 10
203.9628322622083
 20
-2.037167737791776
 30
0.0
 40
2.0
100
AcDbArc
 50
0.0
 51
90.00000000000001
  0
ARC
  5
2AD1
330
3A7C
100
AcDbEntity
  8
Boden
100
AcDbCircle
 10
203.9628322622083
 20
-3.037167737791805
 30
0.0
 40
2.0
100
AcDbArc
 50
270.0
 51
0.0
  0
ARC
  5
2AD2
330
3A7C
100
AcDbEntity
  8
Boden
100
AcDbCircle
 10
406.0000000000001
 20
-3.037167737791577
 30
0.0
 40
2.0
100
AcDbArc
 50
180.0
 51
270.0
  0
ARC
  5
2AD3
330
3A7C
100
AcDbEntity
  8
Boden
100
AcDbCircle
 10
442.0000000000001
 20
-3.037167737791435
 30
0.0
 40
2.0
100
AcDbArc
 50
270.0
 51
0.0
  0
ARC
  5
2AD4
330
3A7C
100
AcDbEntity
  8
Boden
100
AcDbCircle
 10
442.0000000000001
 20
-2.037167737791549
 30
0.0
 40
2.0
100
AcDbArc
 50
0.0
 51
90.00000000000001
  0
ARC
  5
2AD5
330
3A7C
100
AcDbEntity
  8
Boden
100
AcDbCircle
 10
406.0000000000002
 20
-2.037167737791634
 30
0.0
 40
2.0
100
AcDbArc
 50
90.00000000000001
 51
180.0
  0
LINE
  5
2AD6
330
3A7C
100
AcDbEntity
  8
Boden
100
AcDbLine
 10
167.9628322622083
 20
-0.0371677377917763
 30
0.0
 11
203.9628322622083
 21
-0.0371677377917479
 31
0.0
  0
LINE
  5
2AD7
330
3A7C
100
AcDbEntity
  8
Boden
100
AcDbLine
 10
167.9628322622083
 20
-5.037167737791776
 30
0.0
 11
203.9628322622083
 21
-5.037167737791776
 31
0.0
  0
LINE
  5
2AD8
330
3A7C
100
AcDbEntity
  8
Boden
100
AcDbLine
 10
406.0000000000002
 20
-0.0371677377915773
 30
0.0
 11
442.0000000000001
 21
-0.0371677377915773
 31
0.0
  0
LINE
  5
2AD9
330
3A7C
100
AcDbEntity
  8
Boden
100
AcDbLine
 10
406.0000000000001
 20
-5.037167737791492
 30
0.0
 11
442.0000000000001
 21
-5.037167737791606
 31
0.0
  0
LINE
  5
2ADA
330
3A7C
100
AcDbEntity
  8
Boden
100
AcDbLine
 10
165.9628322622083
 20
-12.03716773779178
 30
0.0
 11
165.9628322622083
 21
-13.03716773779178
 31
0.0
  0
LINE
  5
2ADB
330
3A7C
100
AcDbEntity
  8
Boden
100
AcDbLine
 10
205.9628322622083
 20
-13.03716773779178
 30
0.0
 11
205.9628322622083
 21
-12.03716773779178
 31
0.0
  0
LINE
  5
2ADC
330
3A7C
100
AcDbEntity
  8
Boden
100
AcDbLine
 10
444.0000000000001
 20
-12.03716773779163
 30
0.0
 11
444.0000000000001
 21
-13.03716773779155
 31
0.0
  0
LINE
  5
2ADD
330
3A7C
100
AcDbEntity
  8
Boden
100
AcDbLine
 10
404.0000000000001
 20
-12.03716773779149
 30
0.0
 11
404.0000000000001
 21
-13.03716773779152
 31
0.0
  0
ARC
  5
2ADE
330
3A7C
100
AcDbEntity
  8
Boden
100
AcDbCircle
 10
167.9628322622083
 20
-13.03716773779178
 30
0.0
 40
2.0
100
AcDbArc
 50
180.0
 51
270.0
  0
ARC
  5
2ADF
330
3A7C
100
AcDbEntity
  8
Boden
100
AcDbCircle
 10
167.9628322622083
 20
-12.03716773779178
 30
0.0
 40
2.0
100
AcDbArc
 50
90.00000000000001
 51
180.0
  0
ARC
  5
2AE0
330
3A7C
100
AcDbEntity
  8
Boden
100
AcDbCircle
 10
203.9628322622083
 20
-12.03716773779175
 30
0.0
 40
2.0
100
AcDbArc
 50
0.0
 51
90.00000000000001
  0
ARC
  5
2AE1
330
3A7C
100
AcDbEntity
  8
Boden
100
AcDbCircle
 10
203.9628322622083
 20
-13.03716773779175
 30
0.0
 40
2.0
100
AcDbArc
 50
270.0
 51
0.0
  0
ARC
  5
2AE2
330
3A7C
100
AcDbEntity
  8
Boden
100
AcDbCircle
 10
406.0000000000001
 20
-13.03716773779152
 30
0.0
 40
2.0
100
AcDbArc
 50
180.0
 51
270.0
  0
ARC
  5
2AE3
330
3A7C
100
AcDbEntity
  8
Boden
100
AcDbCircle
 10
442.0000000000001
 20
-13.03716773779155
 30
0.0
 40
2.0
100
AcDbArc
 50
270.0
 51
0.0
  0
ARC
  5
2AE4
330
3A7C
100
AcDbEntity
  8
Boden
100
AcDbCircle
 10
442.0000000000001
 20
-12.03716773779158
 30
0.0
 40
2.0
100
AcDbArc
 50
0.0
 51
90.00000000000001
  0
ARC
  5
2AE5
330
3A7C
100
AcDbEntity
  8
Boden
100
AcDbCircle
 10
406.0000000000002
 20
-12.03716773779152
 30
0.0
 40
2.0
100
AcDbArc
 50
90.00000000000001
 51
180.0
  0
LINE
  5
2AE6
330
3A7C
100
AcDbEntity
  8
Boden
100
AcDbLine
 10
167.9628322622083
 20
-10.03716773779178
 30
0.0
 11
203.9628322622083
 21
-10.03716773779178
 31
0.0
  0
LINE
  5
2AE7
330
3A7C
100
AcDbEntity
  8
Boden
100
AcDbLine
 10
167.9628322622083
 20
-15.03716773779178
 30
0.0
 11
203.9628322622083
 21
-15.03716773779178
 31
0.0
  0
LINE
  5
2AE8
330
3A7C
100
AcDbEntity
  8
Boden
100
AcDbLine
 10
406.0000000000002
 20
-10.03716773779163
 30
0.0
 11
442.0000000000001
 21
-10.03716773779158
 31
0.0
  0
LINE
  5
2AE9
330
3A7C
100
AcDbEntity
  8
Boden
100
AcDbLine
 10
406.0000000000001
 20
-15.03716773779155
 30
0.0
 11
442.0000000000001
 21
-15.03716773779158
 31
0.0
  0
LINE
  5
2AEA
330
3A7C
100
AcDbEntity
  8
Boden
100
AcDbLine
 10
165.9628322622083
 20
-22.03716773779178
 30
0.0
 11
165.9628322622083
 21
-23.03716773779175
 31
0.0
  0
LINE
  5
2AEB
330
3A7C
100
AcDbEntity
  8
Boden
100
AcDbLine
 10
205.9628322622083
 20
-23.03716773779175
 30
0.0
 11
205.9628322622083
 21
-22.03716773779178
 31
0.0
  0
LINE
  5
2AEC
330
3A7C
100
AcDbEntity
  8
Boden
100
AcDbLine
 10
444.0000000000001
 20
-22.03716773779152
 30
0.0
 11
444.0000000000001
 21
-23.03716773779155
 31
0.0
  0
LINE
  5
2AED
330
3A7C
100
AcDbEntity
  8
Boden
100
AcDbLine
 10
404.0000000000001
 20
-22.03716773779152
 30
0.0
 11
404.0000000000001
 21
-23.03716773779161
 31
0.0
  0
ARC
  5
2AEE
330
3A7C
100
AcDbEntity
  8
Boden
100
AcDbCircle
 10
167.9628322622083
 20
-23.03716773779178
 30
0.0
 40
2.0
100
AcDbArc
 50
180.0
 51
270.0
  0
ARC
  5
2AEF
330
3A7C
100
AcDbEntity
  8
Boden
100
AcDbCircle
 10
167.9628322622083
 20
-22.03716773779178
 30
0.0
 40
2.0
100
AcDbArc
 50
90.00000000000001
 51
180.0
  0
ARC
  5
2AF0
330
3A7C
100
AcDbEntity
  8
Boden
100
AcDbCircle
 10
203.9628322622083
 20
-22.03716773779175
 30
0.0
 40
2.0
100
AcDbArc
 50
0.0
 51
90.00000000000001
  0
ARC
  5
2AF1
330
3A7C
100
AcDbEntity
  8
Boden
100
AcDbCircle
 10
203.9628322622083
 20
-23.03716773779175
 30
0.0
 40
2.0
100
AcDbArc
 50
270.0
 51
0.0
  0
ARC
  5
2AF2
330
3A7C
100
AcDbEntity
  8
Boden
100
AcDbCircle
 10
406.0000000000001
 20
-23.03716773779152
 30
0.0
 40
2.0
100
AcDbArc
 50
180.0
 51
270.0
  0
ARC
  5
2AF3
330
3A7C
100
AcDbEntity
  8
Boden
100
AcDbCircle
 10
442.0000000000001
 20
-23.03716773779163
 30
0.0
 40
2.0
100
AcDbArc
 50
270.0
 51
0.0
  0
ARC
  5
2AF4
330
3A7C
100
AcDbEntity
  8
Boden
100
AcDbCircle
 10
442.0000000000001
 20
-22.03716773779158
 30
0.0
 40
2.0
100
AcDbArc
 50
0.0
 51
90.00000000000001
  0
ARC
  5
2AF5
330
3A7C
100
AcDbEntity
  8
Boden
100
AcDbCircle
 10
406.0000000000002
 20
-22.03716773779155
 30
0.0
 40
2.0
100
AcDbArc
 50
90.00000000000001
 51
180.0
  0
LINE
  5
2AF6
330
3A7C
100
AcDbEntity
  8
Boden
100
AcDbLine
 10
167.9628322622083
 20
-20.03716773779175
 30
0.0
 11
203.9628322622083
 21
-20.03716773779178
 31
0.0
  0
LINE
  5
2AF7
330
3A7C
100
AcDbEntity
  8
Boden
100
AcDbLine
 10
167.9628322622083
 20
-25.03716773779178
 30
0.0
 11
203.9628322622083
 21
-25.03716773779178
 31
0.0
  0
LINE
  5
2AF8
330
3A7C
100
AcDbEntity
  8
Boden
100
AcDbLine
 10
406.0000000000002
 20
-20.03716773779163
 30
0.0
 11
442.0000000000001
 21
-20.03716773779155
 31
0.0
  0
LINE
  5
2AF9
330
3A7C
100
AcDbEntity
  8
Boden
100
AcDbLine
 10
406.0000000000001
 20
-25.03716773779158
 30
0.0
 11
442.0000000000001
 21
-25.03716773779158
 31
0.0
  0
LINE
  5
2AFA
330
3A7C
100
AcDbEntity
  8
Boden
100
AcDbLine
 10
165.9628322622083
 20
-32.03716773779178
 30
0.0
 11
165.9628322622083
 21
-33.03716773779178
 31
0.0
  0
LINE
  5
2AFB
330
3A7C
100
AcDbEntity
  8
Boden
100
AcDbLine
 10
205.9628322622083
 20
-33.03716773779178
 30
0.0
 11
205.9628322622083
 21
-32.03716773779178
 31
0.0
  0
LINE
  5
2AFC
330
3A7C
100
AcDbEntity
  8
Boden
100
AcDbLine
 10
444.0000000000001
 20
-32.03716773779146
 30
0.0
 11
444.0000000000001
 21
-33.03716773779158
 31
0.0
  0
LINE
  5
2AFD
330
3A7C
100
AcDbEntity
  8
Boden
100
AcDbLine
 10
404.0000000000001
 20
-32.03716773779155
 30
0.0
 11
404.0000000000001
 21
-33.03716773779149
 31
0.0
  0
ARC
  5
2AFE
330
3A7C
100
AcDbEntity
  8
Boden
100
AcDbCircle
 10
167.9628322622083
 20
-33.03716773779178
 30
0.0
 40
2.0
100
AcDbArc
 50
180.0
 51
270.0
  0
ARC
  5
2AFF
330
3A7C
100
AcDbEntity
  8
Boden
100
AcDbCircle
 10
167.9628322622083
 20
-32.03716773779178
 30
0.0
 40
2.0
100
AcDbArc
 50
90.00000000000001
 51
180.0
  0
ARC
  5
2B00
330
3A7C
100
AcDbEntity
  8
Boden
100
AcDbCircle
 10
203.9628322622083
 20
-32.03716773779178
 30
0.0
 40
2.0
100
AcDbArc
 50
0.0
 51
90.00000000000001
  0
ARC
  5
2B01
330
3A7C
100
AcDbEntity
  8
Boden
100
AcDbCircle
 10
203.9628322622083
 20
-33.03716773779183
 30
0.0
 40
2.0
100
AcDbArc
 50
270.0
 51
0.0
  0
ARC
  5
2B02
330
3A7C
100
AcDbEntity
  8
Boden
100
AcDbCircle
 10
406.0000000000001
 20
-33.03716773779158
 30
0.0
 40
2.0
100
AcDbArc
 50
180.0
 51
270.0
  0
ARC
  5
2B03
330
3A7C
100
AcDbEntity
  8
Boden
100
AcDbCircle
 10
442.0000000000001
 20
-33.03716773779155
 30
0.0
 40
2.0
100
AcDbArc
 50
270.0
 51
0.0
  0
ARC
  5
2B04
330
3A7C
100
AcDbEntity
  8
Boden
100
AcDbCircle
 10
442.0000000000001
 20
-32.03716773779155
 30
0.0
 40
2.0
100
AcDbArc
 50
0.0
 51
90.00000000000001
  0
ARC
  5
2B05
330
3A7C
100
AcDbEntity
  8
Boden
100
AcDbCircle
 10
406.0000000000002
 20
-32.03716773779158
 30
0.0
 40
2.0
100
AcDbArc
 50
90.00000000000001
 51
180.0
  0
LINE
  5
2B06
330
3A7C
100
AcDbEntity
  8
Boden
100
AcDbLine
 10
167.9628322622083
 20
-30.03716773779178
 30
0.0
 11
203.9628322622083
 21
-30.03716773779178
 31
0.0
  0
LINE
  5
2B07
330
3A7C
100
AcDbEntity
  8
Boden
100
AcDbLine
 10
167.9628322622083
 20
-35.03716773779178
 30
0.0
 11
203.9628322622083
 21
-35.03716773779178
 31
0.0
  0
LINE
  5
2B08
330
3A7C
100
AcDbEntity
  8
Boden
100
AcDbLine
 10
406.0000000000002
 20
-30.03716773779146
 30
0.0
 11
442.0000000000001
 21
-30.03716773779158
 31
0.0
  0
LINE
  5
2B09
330
3A7C
100
AcDbEntity
  8
Boden
100
AcDbLine
 10
406.0000000000001
 20
-35.03716773779149
 30
0.0
 11
442.0000000000001
 21
-35.03716773779149
 31
0.0
  0
LINE
  5
2B0A
330
3A7C
100
AcDbEntity
  8
Boden
100
AcDbLine
 10
165.9628322622083
 20
-42.0371677377918
 30
0.0
 11
165.9628322622083
 21
-43.03716773779172
 31
0.0
  0
LINE
  5
2B0B
330
3A7C
100
AcDbEntity
  8
Boden
100
AcDbLine
 10
205.9628322622083
 20
-43.0371677377918
 30
0.0
 11
205.9628322622083
 21
-42.03716773779175
 31
0.0
  0
LINE
  5
2B0C
330
3A7C
100
AcDbEntity
  8
Boden
100
AcDbLine
 10
444.0000000000001
 20
-42.03716773779158
 30
0.0
 11
444.0000000000001
 21
-43.03716773779149
 31
0.0
  0
LINE
  5
2B0D
330
3A7C
100
AcDbEntity
  8
Boden
100
AcDbLine
 10
404.0000000000001
 20
-42.03716773779155
 30
0.0
 11
404.0000000000001
 21
-43.03716773779158
 31
0.0
  0
ARC
  5
2B0E
330
3A7C
100
AcDbEntity
  8
Boden
100
AcDbCircle
 10
167.9628322622083
 20
-43.03716773779175
 30
0.0
 40
2.0
100
AcDbArc
 50
180.0
 51
270.0
  0
ARC
  5
2B0F
330
3A7C
100
AcDbEntity
  8
Boden
100
AcDbCircle
 10
167.9628322622083
 20
-42.03716773779178
 30
0.0
 40
2.0
100
AcDbArc
 50
90.00000000000001
 51
180.0
  0
ARC
  5
2B10
330
3A7C
100
AcDbEntity
  8
Boden
100
AcDbCircle
 10
203.9628322622083
 20
-42.03716773779178
 30
0.0
 40
2.0
100
AcDbArc
 50
0.0
 51
90.00000000000001
  0
ARC
  5
2B11
330
3A7C
100
AcDbEntity
  8
Boden
100
AcDbCircle
 10
203.9628322622083
 20
-43.0371677377918
 30
0.0
 40
2.0
100
AcDbArc
 50
270.0
 51
0.0
  0
ARC
  5
2B12
330
3A7C
100
AcDbEntity
  8
Boden
100
AcDbCircle
 10
406.0000000000001
 20
-43.03716773779152
 30
0.0
 40
2.0
100
AcDbArc
 50
180.0
 51
270.0
  0
ARC
  5
2B13
330
3A7C
100
AcDbEntity
  8
Boden
100
AcDbCircle
 10
442.0000000000001
 20
-43.03716773779152
 30
0.0
 40
2.0
100
AcDbArc
 50
270.0
 51
0.0
  0
ARC
  5
2B14
330
3A7C
100
AcDbEntity
  8
Boden
100
AcDbCircle
 10
442.0000000000001
 20
-42.03716773779158
 30
0.0
 40
2.0
100
AcDbArc
 50
0.0
 51
90.00000000000001
  0
ARC
  5
2B15
330
3A7C
100
AcDbEntity
  8
Boden
100
AcDbCircle
 10
406.0000000000002
 20
-42.03716773779158
 30
0.0
 40
2.0
100
AcDbArc
 50
90.00000000000001
 51
180.0
  0
LINE
  5
2B16
330
3A7C
100
AcDbEntity
  8
Boden
100
AcDbLine
 10
167.9628322622083
 20
-40.03716773779178
 30
0.0
 11
203.9628322622083
 21
-40.03716773779178
 31
0.0
  0
LINE
  5
2B17
330
3A7C
100
AcDbEntity
  8
Boden
100
AcDbLine
 10
167.9628322622083
 20
-45.0371677377918
 30
0.0
 11
203.9628322622083
 21
-45.03716773779175
 31
0.0
  0
LINE
  5
2B18
330
3A7C
100
AcDbEntity
  8
Boden
100
AcDbLine
 10
406.0000000000002
 20
-40.03716773779158
 30
0.0
 11
442.0000000000001
 21
-40.03716773779163
 31
0.0
  0
LINE
  5
2B19
330
3A7C
100
AcDbEntity
  8
Boden
100
AcDbLine
 10
406.0000000000001
 20
-45.03716773779152
 30
0.0
 11
442.0000000000001
 21
-45.03716773779152
 31
0.0
  0
LINE
  5
2B3C
330
3A7C
100
AcDbEntity
  8
Boden
100
AcDbLine
 10
279.9323430132335
 20
-228.826788232457
 30
0.0
 11
279.9323430132336
 21
-229.8267882324569
 31
0.0
  0
LINE
  5
2B3D
330
3A7C
100
AcDbEntity
  8
Boden
100
AcDbLine
 10
239.9323430132336
 20
-228.8267882324569
 30
0.0
 11
239.9323430132336
 21
-229.8267882324571
 31
0.0
  0
ARC
  5
2B42
330
3A7C
100
AcDbEntity
  8
Boden
100
AcDbCircle
 10
241.9323430132334
 20
-229.8267882324571
 30
0.0
 40
2.0
100
AcDbArc
 50
180.0
 51
270.0
  0
ARC
  5
2B43
330
3A7C
100
AcDbEntity
  8
Boden
100
AcDbCircle
 10
277.9323430132337
 20
-229.8267882324569
 30
0.0
 40
2.0
100
AcDbArc
 50
270.0
 51
0.0
  0
ARC
  5
2B44
330
3A7C
100
AcDbEntity
  8
Boden
100
AcDbCircle
 10
277.9323430132335
 20
-228.8267882324569
 30
0.0
 40
2.0
100
AcDbArc
 50
0.0
 51
90.00000000000001
  0
ARC
  5
2B45
330
3A7C
100
AcDbEntity
  8
Boden
100
AcDbCircle
 10
241.9323430132337
 20
-228.8267882324569
 30
0.0
 40
2.0
100
AcDbArc
 50
90.00000000000001
 51
180.0
  0
LINE
  5
2B48
330
3A7C
100
AcDbEntity
  8
Boden
100
AcDbLine
 10
241.9323430132337
 20
-226.8267882324569
 30
0.0
 11
277.9323430132337
 21
-226.8267882324569
 31
0.0
  0
LINE
  5
2B49
330
3A7C
100
AcDbEntity
  8
Boden
100
AcDbLine
 10
241.9323430132335
 20
-231.8267882324569
 30
0.0
 11
277.9323430132337
 21
-231.8267882324569
 31
0.0
  0
LINE
  5
2B4C
330
3A7C
100
AcDbEntity
  8
Boden
100
AcDbLine
 10
279.9323430132335
 20
-238.826788232457
 30
0.0
 11
279.9323430132337
 21
-239.8267882324569
 31
0.0
  0
LINE
  5
2B4D
330
3A7C
100
AcDbEntity
  8
Boden
100
AcDbLine
 10
239.9323430132336
 20
-238.8267882324569
 30
0.0
 11
239.9323430132336
 21
-239.8267882324571
 31
0.0
  0
ARC
  5
2B52
330
3A7C
100
AcDbEntity
  8
Boden
100
AcDbCircle
 10
241.9323430132335
 20
-239.826788232457
 30
0.0
 40
2.0
100
AcDbArc
 50
180.0
 51
270.0
  0
ARC
  5
2B53
330
3A7C
100
AcDbEntity
  8
Boden
100
AcDbCircle
 10
277.9323430132335
 20
-239.8267882324569
 30
0.0
 40
2.0
100
AcDbArc
 50
270.0
 51
0.0
  0
ARC
  5
2B54
330
3A7C
100
AcDbEntity
  8
Boden
100
AcDbCircle
 10
277.9323430132335
 20
-238.8267882324569
 30
0.0
 40
2.0
100
AcDbArc
 50
0.0
 51
90.00000000000001
  0
ARC
  5
2B55
330
3A7C
100
AcDbEntity
  8
Boden
100
AcDbCircle
 10
241.9323430132337
 20
-238.8267882324569
 30
0.0
 40
2.0
100
AcDbArc
 50
90.00000000000001
 51
180.0
  0
LINE
  5
2B58
330
3A7C
100
AcDbEntity
  8
Boden
100
AcDbLine
 10
241.9323430132337
 20
-236.8267882324569
 30
0.0
 11
277.9323430132336
 21
-236.8267882324569
 31
0.0
  0
LINE
  5
2B59
330
3A7C
100
AcDbEntity
  8
Boden
100
AcDbLine
 10
241.9323430132335
 20
-241.826788232457
 30
0.0
 11
277.9323430132335
 21
-241.826788232457
 31
0.0
  0
LINE
  5
2B5C
330
3A7C
100
AcDbEntity
  8
Boden
100
AcDbLine
 10
279.9323430132337
 20
-248.8267882324569
 30
0.0
 11
279.9323430132337
 21
-249.8267882324569
 31
0.0
  0
LINE
  5
2B5D
330
3A7C
100
AcDbEntity
  8
Boden
100
AcDbLine
 10
239.9323430132336
 20
-248.8267882324569
 30
0.0
 11
239.9323430132335
 21
-249.8267882324571
 31
0.0
  0
ARC
  5
2B62
330
3A7C
100
AcDbEntity
  8
Boden
100
AcDbCircle
 10
241.9323430132335
 20
-249.8267882324571
 30
0.0
 40
2.0
100
AcDbArc
 50
180.0
 51
270.0
  0
ARC
  5
2B63
330
3A7C
100
AcDbEntity
  8
Boden
100
AcDbCircle
 10
277.9323430132337
 20
-249.8267882324569
 30
0.0
 40
2.0
100
AcDbArc
 50
270.0
 51
0.0
  0
ARC
  5
2B64
330
3A7C
100
AcDbEntity
  8
Boden
100
AcDbCircle
 10
277.9323430132335
 20
-248.8267882324569
 30
0.0
 40
2.0
100
AcDbArc
 50
0.0
 51
90.00000000000001
  0
ARC
  5
2B65
330
3A7C
100
AcDbEntity
  8
Boden
100
AcDbCircle
 10
241.9323430132337
 20
-248.8267882324569
 30
0.0
 40
2.0
100
AcDbArc
 50
90.00000000000001
 51
180.0
  0
LINE
  5
2B68
330
3A7C
100
AcDbEntity
  8
Boden
100
AcDbLine
 10
241.9323430132337
 20
-246.8267882324569
 30
0.0
 11
277.9323430132337
 21
-246.8267882324569
 31
0.0
  0
LINE
  5
2B69
330
3A7C
100
AcDbEntity
  8
Boden
100
AcDbLine
 10
241.9323430132335
 20
-251.826788232457
 30
0.0
 11
277.9323430132335
 21
-251.826788232457
 31
0.0
  0
LINE
  5
2B6C
330
3A7C
100
AcDbEntity
  8
Boden
100
AcDbLine
 10
279.9323430132336
 20
-258.826788232457
 30
0.0
 11
279.9323430132336
 21
-259.8267882324569
 31
0.0
  0
LINE
  5
2B6D
330
3A7C
100
AcDbEntity
  8
Boden
100
AcDbLine
 10
239.9323430132337
 20
-258.8267882324569
 30
0.0
 11
239.9323430132336
 21
-259.826788232457
 31
0.0
  0
ARC
  5
2B72
330
3A7C
100
AcDbEntity
  8
Boden
100
AcDbCircle
 10
241.9323430132335
 20
-259.826788232457
 30
0.0
 40
2.0
100
AcDbArc
 50
180.0
 51
270.0
  0
ARC
  5
2B73
330
3A7C
100
AcDbEntity
  8
Boden
100
AcDbCircle
 10
277.9323430132336
 20
-259.8267882324569
 30
0.0
 40
2.0
100
AcDbArc
 50
270.0
 51
0.0
  0
ARC
  5
2B74
330
3A7C
100
AcDbEntity
  8
Boden
100
AcDbCircle
 10
277.9323430132337
 20
-258.8267882324569
 30
0.0
 40
2.0
100
AcDbArc
 50
0.0
 51
90.00000000000001
  0
ARC
  5
2B75
330
3A7C
100
AcDbEntity
  8
Boden
100
AcDbCircle
 10
241.9323430132337
 20
-258.8267882324569
 30
0.0
 40
2.0
100
AcDbArc
 50
90.00000000000001
 51
180.0
  0
LINE
  5
2B78
330
3A7C
100
AcDbEntity
  8
Boden
100
AcDbLine
 10
241.9323430132337
 20
-256.8267882324569
 30
0.0
 11
277.9323430132337
 21
-256.8267882324569
 31
0.0
  0
LINE
  5
2B79
330
3A7C
100
AcDbEntity
  8
Boden
100
AcDbLine
 10
241.9323430132334
 20
-261.8267882324569
 30
0.0
 11
277.9323430132335
 21
-261.826788232457
 31
0.0
  0
LINE
  5
2B7C
330
3A7C
100
AcDbEntity
  8
Boden
100
AcDbLine
 10
279.9323430132336
 20
-268.826788232457
 30
0.0
 11
279.9323430132335
 21
-269.8267882324569
 31
0.0
  0
LINE
  5
2B7D
330
3A7C
100
AcDbEntity
  8
Boden
100
AcDbLine
 10
239.9323430132336
 20
-268.8267882324569
 30
0.0
 11
239.9323430132336
 21
-269.826788232457
 31
0.0
  0
ARC
  5
2B82
330
3A7C
100
AcDbEntity
  8
Boden
100
AcDbCircle
 10
241.9323430132335
 20
-269.826788232457
 30
0.0
 40
2.0
100
AcDbArc
 50
180.0
 51
270.0
  0
ARC
  5
2B83
330
3A7C
100
AcDbEntity
  8
Boden
100
AcDbCircle
 10
277.9323430132336
 20
-269.826788232457
 30
0.0
 40
2.0
100
AcDbArc
 50
270.0
 51
0.0
  0
ARC
  5
2B84
330
3A7C
100
AcDbEntity
  8
Boden
100
AcDbCircle
 10
277.9323430132335
 20
-268.826788232457
 30
0.0
 40
2.0
100
AcDbArc
 50
0.0
 51
90.00000000000001
  0
ARC
  5
2B85
330
3A7C
100
AcDbEntity
  8
Boden
100
AcDbCircle
 10
241.9323430132337
 20
-268.8267882324569
 30
0.0
 40
2.0
100
AcDbArc
 50
90.00000000000001
 51
180.0
  0
LINE
  5
2B88
330
3A7C
100
AcDbEntity
  8
Boden
100
AcDbLine
 10
241.9323430132337
 20
-266.826788232457
 30
0.0
 11
277.9323430132336
 21
-266.8267882324569
 31
0.0
  0
LINE
  5
2B89
330
3A7C
100
AcDbEntity
  8
Boden
100
AcDbLine
 10
241.9323430132335
 20
-271.826788232457
 30
0.0
 11
277.9323430132337
 21
-271.8267882324569
 31
0.0
  0
ARC
  5
2B8D
330
3A7C
100
AcDbEntity
  8
Boden
100
AcDbCircle
 10
331.9323430132335
 20
-259.826788232457
 30
0.0
 40
2.0
100
AcDbArc
 50
180.0
 51
270.0
  0
ARC
  5
2B8E
330
3A7C
100
AcDbEntity
  8
Boden
100
AcDbCircle
 10
367.9323430132335
 20
-259.8267882324569
 30
0.0
 40
2.0
100
AcDbArc
 50
270.0
 51
0.0
  0
ARC
  5
2B8F
330
3A7C
100
AcDbEntity
  8
Boden
100
AcDbCircle
 10
367.9323430132334
 20
-258.826788232457
 30
0.0
 40
2.0
100
AcDbArc
 50
0.0
 51
90.00000000000001
  0
ARC
  5
2B90
330
3A7C
100
AcDbEntity
  8
Boden
100
AcDbCircle
 10
331.9323430132337
 20
-258.826788232457
 30
0.0
 40
2.0
100
AcDbArc
 50
90.00000000000001
 51
180.0
  0
LINE
  5
2B91
330
3A7C
100
AcDbEntity
  8
Boden
100
AcDbLine
 10
331.9323430132336
 20
-256.8267882324569
 30
0.0
 11
367.9323430132335
 21
-256.8267882324569
 31
0.0
  0
LINE
  5
2B92
330
3A7C
100
AcDbEntity
  8
Boden
100
AcDbLine
 10
331.9323430132334
 20
-261.8267882324569
 30
0.0
 11
367.9323430132335
 21
-261.8267882324569
 31
0.0
  0
LINE
  5
2B93
330
3A7C
100
AcDbEntity
  8
Boden
100
AcDbLine
 10
369.9323430132334
 20
-268.8267882324569
 30
0.0
 11
369.9323430132335
 21
-269.8267882324569
 31
0.0
  0
LINE
  5
2B94
330
3A7C
100
AcDbEntity
  8
Boden
100
AcDbLine
 10
329.9323430132335
 20
-268.826788232457
 30
0.0
 11
329.9323430132334
 21
-269.826788232457
 31
0.0
  0
LINE
  5
2B95
330
3A7C
100
AcDbEntity
  8
Boden
100
AcDbLine
 10
369.9323430132335
 20
-228.8267882324569
 30
0.0
 11
369.9323430132335
 21
-229.8267882324569
 31
0.0
  0
LINE
  5
2B96
330
3A7C
100
AcDbEntity
  8
Boden
100
AcDbLine
 10
329.9323430132335
 20
-228.8267882324569
 30
0.0
 11
329.9323430132335
 21
-229.8267882324571
 31
0.0
  0
ARC
  5
2B97
330
3A7C
100
AcDbEntity
  8
Boden
100
AcDbCircle
 10
331.9323430132335
 20
-269.826788232457
 30
0.0
 40
2.0
100
AcDbArc
 50
180.0
 51
270.0
  0
ARC
  5
2B98
330
3A7C
100
AcDbEntity
  8
Boden
100
AcDbCircle
 10
367.9323430132335
 20
-269.8267882324569
 30
0.0
 40
2.0
100
AcDbArc
 50
270.0
 51
0.0
  0
ARC
  5
2B99
330
3A7C
100
AcDbEntity
  8
Boden
100
AcDbCircle
 10
367.9323430132334
 20
-268.826788232457
 30
0.0
 40
2.0
100
AcDbArc
 50
0.0
 51
90.00000000000001
  0
ARC
  5
2B9A
330
3A7C
100
AcDbEntity
  8
Boden
100
AcDbCircle
 10
331.9323430132335
 20
-229.826788232457
 30
0.0
 40
2.0
100
AcDbArc
 50
180.0
 51
270.0
  0
ARC
  5
2B9B
330
3A7C
100
AcDbEntity
  8
Boden
100
AcDbCircle
 10
331.9323430132337
 20
-268.8267882324569
 30
0.0
 40
2.0
100
AcDbArc
 50
90.00000000000001
 51
180.0
  0
ARC
  5
2B9C
330
3A7C
100
AcDbEntity
  8
Boden
100
AcDbCircle
 10
367.9323430132334
 20
-229.826788232457
 30
0.0
 40
2.0
100
AcDbArc
 50
270.0
 51
0.0
  0
ARC
  5
2B9D
330
3A7C
100
AcDbEntity
  8
Boden
100
AcDbCircle
 10
367.9323430132335
 20
-228.826788232457
 30
0.0
 40
2.0
100
AcDbArc
 50
0.0
 51
90.00000000000001
  0
ARC
  5
2B9E
330
3A7C
100
AcDbEntity
  8
Boden
100
AcDbCircle
 10
331.9323430132336
 20
-228.8267882324569
 30
0.0
 40
2.0
100
AcDbArc
 50
90.00000000000001
 51
180.0
  0
LINE
  5
2B9F
330
3A7C
100
AcDbEntity
  8
Boden
100
AcDbLine
 10
331.9323430132336
 20
-266.8267882324569
 30
0.0
 11
367.9323430132334
 21
-266.826788232457
 31
0.0
  0
LINE
  5
2BA0
330
3A7C
100
AcDbEntity
  8
Boden
100
AcDbLine
 10
331.9323430132334
 20
-271.8267882324569
 30
0.0
 11
367.9323430132334
 21
-271.8267882324569
 31
0.0
  0
LINE
  5
2BA1
330
3A7C
100
AcDbEntity
  8
Boden
100
AcDbLine
 10
331.9323430132335
 20
-226.8267882324569
 30
0.0
 11
367.9323430132335
 21
-226.8267882324569
 31
0.0
  0
LINE
  5
2BA2
330
3A7C
100
AcDbEntity
  8
Boden
100
AcDbLine
 10
331.9323430132335
 20
-231.8267882324569
 30
0.0
 11
367.9323430132335
 21
-231.8267882324569
 31
0.0
  0
LINE
  5
2BA4
330
3A7C
100
AcDbEntity
  8
Boden
100
AcDbLine
 10
369.9323430132335
 20
-238.8267882324569
 30
0.0
 11
369.9323430132335
 21
-239.826788232457
 31
0.0
  0
LINE
  5
2BA5
330
3A7C
100
AcDbEntity
  8
Boden
100
AcDbLine
 10
329.9323430132335
 20
-238.8267882324569
 30
0.0
 11
329.9323430132335
 21
-239.8267882324571
 31
0.0
  0
ARC
  5
2BA6
330
3A7C
100
AcDbEntity
  8
Boden
100
AcDbCircle
 10
331.9323430132334
 20
-239.8267882324571
 30
0.0
 40
2.0
100
AcDbArc
 50
180.0
 51
270.0
  0
ARC
  5
2BA7
330
3A7C
100
AcDbEntity
  8
Boden
100
AcDbCircle
 10
367.9323430132335
 20
-239.8267882324569
 30
0.0
 40
2.0
100
AcDbArc
 50
270.0
 51
0.0
  0
ARC
  5
2BA8
330
3A7C
100
AcDbEntity
  8
Boden
100
AcDbCircle
 10
367.9323430132334
 20
-238.8267882324569
 30
0.0
 40
2.0
100
AcDbArc
 50
0.0
 51
90.00000000000001
  0
ARC
  5
2BA9
330
3A7C
100
AcDbEntity
  8
Boden
100
AcDbCircle
 10
331.9323430132337
 20
-238.8267882324569
 30
0.0
 40
2.0
100
AcDbArc
 50
90.00000000000001
 51
180.0
  0
LINE
  5
2BAA
330
3A7C
100
AcDbEntity
  8
Boden
100
AcDbLine
 10
331.9323430132336
 20
-236.8267882324569
 30
0.0
 11
367.9323430132334
 21
-236.826788232457
 31
0.0
  0
LINE
  5
2BAB
330
3A7C
100
AcDbEntity
  8
Boden
100
AcDbLine
 10
331.9323430132335
 20
-241.826788232457
 30
0.0
 11
367.9323430132335
 21
-241.826788232457
 31
0.0
  0
LINE
  5
2BAC
330
3A7C
100
AcDbEntity
  8
Boden
100
AcDbLine
 10
369.9323430132335
 20
-248.8267882324569
 30
0.0
 11
369.9323430132335
 21
-249.8267882324569
 31
0.0
  0
LINE
  5
2BAD
330
3A7C
100
AcDbEntity
  8
Boden
100
AcDbLine
 10
329.9323430132335
 20
-248.8267882324569
 30
0.0
 11
329.9323430132334
 21
-249.8267882324571
 31
0.0
  0
ARC
  5
2BAE
330
3A7C
100
AcDbEntity
  8
Boden
100
AcDbCircle
 10
331.9323430132334
 20
-249.8267882324571
 30
0.0
 40
2.0
100
AcDbArc
 50
180.0
 51
270.0
  0
ARC
  5
2BAF
330
3A7C
100
AcDbEntity
  8
Boden
100
AcDbCircle
 10
367.9323430132335
 20
-249.8267882324569
 30
0.0
 40
2.0
100
AcDbArc
 50
270.0
 51
0.0
  0
ARC
  5
2BB0
330
3A7C
100
AcDbEntity
  8
Boden
100
AcDbCircle
 10
367.9323430132335
 20
-248.826788232457
 30
0.0
 40
2.0
100
AcDbArc
 50
0.0
 51
90.00000000000001
  0
ARC
  5
2BB1
330
3A7C
100
AcDbEntity
  8
Boden
100
AcDbCircle
 10
331.9323430132337
 20
-248.8267882324569
 30
0.0
 40
2.0
100
AcDbArc
 50
90.00000000000001
 51
180.0
  0
LINE
  5
2BB2
330
3A7C
100
AcDbEntity
  8
Boden
100
AcDbLine
 10
331.9323430132336
 20
-246.8267882324569
 30
0.0
 11
367.9323430132335
 21
-246.826788232457
 31
0.0
  0
LINE
  5
2BB3
330
3A7C
100
AcDbEntity
  8
Boden
100
AcDbLine
 10
331.9323430132335
 20
-251.8267882324569
 30
0.0
 11
367.9323430132335
 21
-251.8267882324569
 31
0.0
  0
LINE
  5
2BB4
330
3A7C
100
AcDbEntity
  8
Boden
100
AcDbLine
 10
369.9323430132335
 20
-258.8267882324569
 30
0.0
 11
369.9323430132335
 21
-259.8267882324569
 31
0.0
  0
LINE
  5
2BB5
330
3A7C
100
AcDbEntity
  8
Boden
100
AcDbLine
 10
329.9323430132334
 20
-258.8267882324569
 30
0.0
 11
329.9323430132335
 21
-259.826788232457
 31
0.0
  0
LINE
  5
2C68
330
3A7C
100
AcDbEntity
  8
Boden
100
AcDbLine
 10
141.9628322622083
 20
39.96283226220822
 30
0.0
 11
141.9628322622084
 21
-260.0371677377916
 31
0.0
  0
LINE
  5
2C69
330
3A7C
100
AcDbEntity
  8
Boden
100
AcDbLine
 10
468.0000000000002
 20
-260.0371677377916
 30
0.0
 11
468.0000000000001
 21
39.96283226220837
 31
0.0
  0
LINE
  5
2C6A
330
3A7C
100
AcDbEntity
  8
Boden
100
AcDbLine
 10
141.9628322622081
 20
684.0000000000001
 30
0.0
 11
141.9628322622081
 21
384.0000000000001
 31
0.0
  0
LINE
  5
2C6B
330
3A7C
100
AcDbEntity
  8
Boden
100
AcDbLine
 10
468.0
 20
384.0000000000002
 30
0.0
 11
467.9999999999998
 21
684.0000000000003
 31
0.0
  0
CIRCLE
  5
2C6C
330
3A7C
100
AcDbEntity
  8
Boden
100
AcDbCircle
 10
210.6628322622084
 20
-78.2371677377918
 30
0.0
 40
2.7
  0
CIRCLE
  5
2C6D
330
3A7C
100
AcDbEntity
  8
Boden
100
AcDbCircle
 10
379.3000000000002
 20
-78.23716773779157
 30
0.0
 40
2.7
  0
CIRCLE
  5
2C6E
330
3A7C
100
AcDbEntity
  8
Boden
100
AcDbCircle
 10
379.3000000000001
 20
34.16283226220835
 30
0.0
 40
2.7
  0
CIRCLE
  5
2C6F
330
3A7C
100
AcDbEntity
  8
Boden
100
AcDbCircle
 10
210.6628322622084
 20
34.16283226220818
 30
0.0
 40
2.7
  0
CIRCLE
  5
2C70
330
3A7C
100
AcDbEntity
  8
Boden
100
AcDbCircle
 10
349.9323430132335
 20
-146.5420012454653
 30
0.0
 40
30.0
  0
CIRCLE
  5
2C71
330
3A7C
100
AcDbEntity
  8
Boden
100
AcDbCircle
 10
259.9323430132335
 20
-147.0420012454653
 30
0.0
 40
30.0
  0
LINE
  5
2C74
330
3A7C
100
AcDbEntity
  8
WR Halter
100
AcDbLine
 10
142.9628322622084
 20
627.606201850721
 30
0.0
 11
142.9628322622084
 21
621.506201850721
 31
0.0
  0
LINE
  5
2C75
330
3A7C
100
AcDbEntity
  8
WR Halter
100
AcDbLine
 10
467.0000000000002
 20
621.5062018507208
 30
0.0
 11
467.0000000000002
 21
627.6062018507208
 31
0.0
  0
LINE
  5
2C76
330
3A7C
100
AcDbEntity
  8
Boden
100
AcDbLine
 10
127.962832262208
 20
372.0000000000001
 30
0.0
 11
127.9628322622083
 21
51.96283226220822
 31
0.0
  0
LINE
  5
2C77
330
3A7C
100
AcDbEntity
  8
Boden
100
AcDbLine
 10
482.0
 20
372.0000000000005
 30
0.0
 11
482.0000000000001
 21
51.96283226220845
 31
0.0
  0
CIRCLE
  5
2C7B
330
3A7C
100
AcDbEntity
  8
WR Halter
100
AcDbCircle
 10
304.985274636025
 20
621.5
 30
0.0
 40
2.7
  0
CIRCLE
  5
2C7C
330
3A7C
100
AcDbEntity
  8
Boden
100
AcDbCircle
 10
304.985274636025
 20
-197.5371677377916
 30
0.0
 40
2.7
  0
LINE
  5
2C90
330
3A7C
100
AcDbEntity
  8
WR Halter
100
AcDbLine
 10
194.9814161311044
 20
912.4999999999998
 30
0.0
 11
414.9814161311044
 21
912.4999999999998
 31
0.0
  0
LINE
  5
2C92
330
3A7C
100
AcDbEntity
  8
WR Halter
100
AcDbLine
 10
414.9814161311044
 20
692.5
 30
0.0
 11
194.9814161311043
 21
692.5
 31
0.0
  0
ARC
  5
2C95
330
3A7C
100
AcDbEntity
  8
WR Halter
100
AcDbCircle
 10
194.9814161311044
 20
902.4999999999999
 30
0.0
 40
10.0
100
AcDbArc
 50
90.0
 51
180.0
  0
ARC
  5
2C96
330
3A7C
100
AcDbEntity
  8
WR Halter
100
AcDbCircle
 10
414.9814161311044
 20
902.4999999999997
 30
0.0
 40
10.0
100
AcDbArc
 50
0.0
 51
90.0
  0
ARC
  5
2C97
330
3A7C
100
AcDbEntity
  8
WR Halter
100
AcDbCircle
 10
414.9814161311044
 20
702.5000000000001
 30
0.0
 40
10.0
100
AcDbArc
 50
270.0
 51
0.0
  0
ARC
  5
2C98
330
3A7C
100
AcDbEntity
  8
WR Halter
100
AcDbCircle
 10
194.9814161311043
 20
702.5
 30
0.0
 40
10.0
100
AcDbArc
 50
180.0
 51
270.0
  0
LINE
  5
2C99
330
3A7C
100
AcDbEntity
  8
Haube
100
AcDbLine
 10
-184.0371677377916
 20
380.6613399074684
 30
0.0
 11
-184.0371677377918
 21
43.30149235474035
 31
0.0
  0
LINE
  5
2C9A
330
3A7C
100
AcDbEntity
  8
Haube
100
AcDbLine
 10
794.0
 20
43.30149235474015
 30
0.0
 11
794.0000000000002
 21
380.6613399074677
 31
0.0
  0
LINE
  5
2CCB
330
3A7C
100
AcDbEntity
  8
WR Halter
100
AcDbLine
 10
142.9628322622085
 20
972.5000000000001
 30
0.0
 11
142.9628322622085
 21
963.5000000000001
 31
0.0
  0
LINE
  5
2CCC
330
3A7C
100
AcDbEntity
  8
WR Halter
100
AcDbLine
 10
122.9628322622085
 20
953.5000000000001
 30
0.0
 11
122.9628322622084
 21
651.5000000000001
 31
0.0
  0
LINE
  5
2CCD
330
3A7C
100
AcDbEntity
  8
WR Halter
100
AcDbLine
 10
142.9628322622084
 20
641.5000000000001
 30
0.0
 11
142.9628322622084
 21
632.5000000000001
 31
0.0
  0
LINE
  5
2CCE
330
3A7C
100
AcDbEntity
  8
WR Halter
100
AcDbLine
 10
467.0000000000001
 20
632.4999999999998
 30
0.0
 11
467.0000000000002
 21
641.4999999999999
 31
0.0
  0
LINE
  5
2CCF
330
3A7C
100
AcDbEntity
  8
WR Halter
100
AcDbLine
 10
487.0000000000002
 20
651.4999999999999
 30
0.0
 11
487.0000000000003
 21
953.4999999999998
 31
0.0
  0
LINE
  5
2CD0
330
3A7C
100
AcDbEntity
  8
WR Halter
100
AcDbLine
 10
467.0000000000003
 20
963.4999999999999
 30
0.0
 11
467.0000000000003
 21
972.5
 31
0.0
  0
LINE
  5
2E38
330
3A7C
100
AcDbEntity
  8
Boden
100
AcDbLine
 10
215.4654932529615
 20
62.77495689743705
 30
0.0
 11
255.6351501080844
 21
62.77495689743705
 31
0.0
  0
LINE
  5
2E39
330
3A7C
100
AcDbEntity
  8
Boden
100
AcDbLine
 10
255.6351501080844
 20
62.77495689743705
 30
0.0
 11
255.6351501080844
 21
46.95522070828105
 31
0.0
  0
LINE
  5
2E3A
330
3A7C
100
AcDbEntity
  8
Boden
100
AcDbLine
 10
255.6351501080844
 20
46.95522070828105
 30
0.0
 11
215.4654932529615
 21
46.95522070828105
 31
0.0
  0
LINE
  5
2E3B
330
3A7C
100
AcDbEntity
  8
Boden
100
AcDbLine
 10
215.4654932529615
 20
46.95522070828105
 30
0.0
 11
215.4654932529615
 21
62.77495689743705
 31
0.0
  0
LINE
  5
31AF
330
3A7C
100
AcDbEntity
  8
Dekoblech
100
AcDbLine
 10
240.0549803348612
 20
626.6711846400805
 30
0.0
 11
372.8473502624174
 21
626.6711846400805
 31
0.0
  0
LINE
  5
31B0
330
3A7C
100
AcDbEntity
  8
Dekoblech
100
AcDbLine
 10
372.8473502624174
 20
722.1175656801678
 30
0.0
 11
240.0549803348612
 21
722.1175656801678
 31
0.0
  0
ARC
  5
31B1
330
3A7C
100
AcDbEntity
  8
Dekoblech
100
AcDbCircle
 10
240.0549803348612
 20
702.1175656801677
 30
0.0
 40
20.0
100
AcDbArc
 50
90.0
 51
180.0
  0
ARC
  5
31B2
330
3A7C
100
AcDbEntity
  8
Dekoblech
100
AcDbCircle
 10
372.8473502624174
 20
702.1175656801678
 30
0.0
 40
20.0
100
AcDbArc
 50
0.0
 51
90.0
  0
LINE
  5
31B3
330
3A7C
100
AcDbEntity
  8
Dekoblech
100
AcDbLine
 10
220.0549803348612
 20
646.6711846400805
 30
0.0
 11
220.0549803348612
 21
702.1175656801677
 31
0.0
  0
ARC
  5
31B4
330
3A7C
100
AcDbEntity
  8
Dekoblech
100
AcDbCircle
 10
372.8473502624174
 20
646.6711846400804
 30
0.0
 40
20.0
100
AcDbArc
 50
270.0
 51
0.0
  0
LINE
  5
31B5
330
3A7C
100
AcDbEntity
  8
Dekoblech
100
AcDbLine
 10
392.8473502624174
 20
646.6711846400804
 30
0.0
 11
392.8473502624174
 21
702.1175656801678
 31
0.0
  0
ARC
  5
31B6
330
3A7C
100
AcDbEntity
  8
Dekoblech
100
AcDbCircle
 10
240.0549803348612
 20
646.6711846400805
 30
0.0
 40
20.0
100
AcDbArc
 50
180.0
 51
270.0
  0
LINE
  5
31B7
330
3A7C
100
AcDbEntity
  8
Dekoblech
100
AcDbLine
 10
265.3745019172998
 20
674.9191228621333
 30
0.0
 11
265.3745019172998
 21
692.919122862133
 31
0.0
  0
LINE
  5
31B8
330
3A7C
100
AcDbEntity
  8
Dekoblech
100
AcDbLine
 10
268.3745019172998
 20
695.919122862133
 30
0.0
 11
322.3745019172998
 21
695.9191228621331
 31
0.0
  0
LINE
  5
31B9
330
3A7C
100
AcDbEntity
  8
Dekoblech
100
AcDbLine
 10
325.3745019172998
 20
692.9191228621331
 30
0.0
 11
325.3745019172998
 21
674.9191228621332
 31
0.0
  0
LINE
  5
31BA
330
3A7C
100
AcDbEntity
  8
Dekoblech
100
AcDbLine
 10
322.3745019172998
 20
671.9191228621332
 30
0.0
 11
268.3745019172999
 21
671.9191228621332
 31
0.0
  0
CIRCLE
  5
31BB
330
3A7C
100
AcDbEntity
  8
Dekoblech
100
AcDbCircle
 10
345.2407389233233
 20
698.9382659646163
 30
0.0
 40
2.0
  0
CIRCLE
  5
31BC
330
3A7C
100
AcDbEntity
  8
Dekoblech
100
AcDbCircle
 10
345.2366677152817
 20
683.9420862555368
 30
0.0
 40
2.0
  0
CIRCLE
  5
31BD
330
3A7C
100
AcDbEntity
  8
Dekoblech
100
AcDbCircle
 10
345.2372561949697
 20
668.948965359328
 30
0.0
 40
2.0
  0
ARC
  5
31BE
330
3A7C
100
AcDbEntity
  8
Dekoblech
100
AcDbCircle
 10
268.3745019172998
 20
692.919122862133
 30
0.0
 40
3.0
100
AcDbArc
 50
90.0
 51
180.0
  0
ARC
  5
31BF
330
3A7C
100
AcDbEntity
  8
Dekoblech
100
AcDbCircle
 10
322.3745019172998
 20
692.9191228621331
 30
0.0
 40
3.0
100
AcDbArc
 50
0.0
 51
90.0
  0
ARC
  5
31C0
330
3A7C
100
AcDbEntity
  8
Dekoblech
100
AcDbCircle
 10
322.3745019172998
 20
674.9191228621332
 30
0.0
 40
3.0
100
AcDbArc
 50
270.0
 51
0.0
  0
ARC
  5
31C1
330
3A7C
100
AcDbEntity
  8
Dekoblech
100
AcDbCircle
 10
268.3745019172999
 20
674.9191228621333
 30
0.0
 40
3.0
100
AcDbArc
 50
180.0
 51
270.0
  0
CIRCLE
  5
31C2
330
3A7C
100
AcDbEntity
  8
Dekoblech
100
AcDbCircle
 10
305.1720310639987
 20
644.8726064311983
 30
0.0
 40
8.2
  0
CIRCLE
  5
31C5
330
3A7C
100
AcDbEntity
  8
Boden
100
AcDbCircle
 10
246.2279560021304
 20
710.6422346986845
 30
0.0
 40
2.7
  0
CIRCLE
  5
31C6
330
3A7C
100
AcDbEntity
  8
Boden
100
AcDbCircle
 10
363.7433300732821
 20
710.6422346986845
 30
0.0
 40
2.7
  0
CIRCLE
  5
31C7
330
3A7C
100
AcDbEntity
  8
Boden
100
AcDbCircle
 10
363.7433300732821
 20
657.339132218228
 30
0.0
 40
2.7
  0
CIRCLE
  5
31C8
330
3A7C
100
AcDbEntity
  8
Boden
100
AcDbCircle
 10
246.2279560021304
 20
657.339132218228
 30
0.0
 40
2.7
  0
CIRCLE
  5
31C9
330
3A7C
100
AcDbEntity
  8
Boden
100
AcDbCircle
 10
345.2407389233233
 20
698.9382659646163
 30
0.0
 40
2.0
  0
CIRCLE
  5
31CA
330
3A7C
100
AcDbEntity
  8
Boden
100
AcDbCircle
 10
345.2366677152817
 20
683.9420862555368
 30
0.0
 40
2.0
  0
CIRCLE
  5
31CB
330
3A7C
100
AcDbEntity
  8
Boden
100
AcDbCircle
 10
345.2372561949697
 20
668.948965359328
 30
0.0
 40
2.0
  0
LINE
  5
31CC
330
3A7C
100
AcDbEntity
  8
Boden
100
AcDbLine
 10
264.8745019172998
 20
693.3906834584561
 30
0.0
 11
264.8745019172998
 21
674.3906834584564
 31
0.0
  0
LINE
  5
31CD
330
3A7C
100
AcDbEntity
  8
Boden
100
AcDbLine
 10
322.8745019172998
 20
696.3906834584561
 30
0.0
 11
267.8745019172998
 21
696.3906834584561
 31
0.0
  0
LINE
  5
31CE
330
3A7C
100
AcDbEntity
  8
Boden
100
AcDbLine
 10
325.8745019172998
 20
674.3906834584562
 30
0.0
 11
325.8745019172998
 21
693.390683458456
 31
0.0
  0
LINE
  5
31CF
330
3A7C
100
AcDbEntity
  8
Boden
100
AcDbLine
 10
267.8745019172998
 20
671.3906834584562
 30
0.0
 11
322.8745019172998
 21
671.3906834584562
 31
0.0
  0
ARC
  5
31D0
330
3A7C
100
AcDbEntity
  8
Boden
100
AcDbCircle
 10
267.8745019172998
 20
693.3906834584561
 30
0.0
 40
3.0
100
AcDbArc
 50
90.0
 51
180.0
  0
ARC
  5
31D1
330
3A7C
100
AcDbEntity
  8
Boden
100
AcDbCircle
 10
322.8745019172998
 20
693.390683458456
 30
0.0
 40
3.0
100
AcDbArc
 50
0.0
 51
90.0
  0
ARC
  5
31D2
330
3A7C
100
AcDbEntity
  8
Boden
100
AcDbCircle
 10
322.8745019172998
 20
674.3906834584562
 30
0.0
 40
3.0
100
AcDbArc
 50
270.0
 51
0.0
  0
ARC
  5
31D3
330
3A7C
100
AcDbEntity
  8
Boden
100
AcDbCircle
 10
267.8745019172998
 20
674.3906834584564
 30
0.0
 40
3.0
100
AcDbArc
 50
180.0
 51
270.0
  0
CIRCLE
  5
31D4
330
3A7C
100
AcDbEntity
  8
Boden
100
AcDbCircle
 10
305.1720310639987
 20
644.8726064311983
 30
0.0
 40
8.2
  0
ARC
  5
31D5
330
3A7C
100
AcDbEntity
  8
Boden
100
AcDbCircle
 10
246.2279560021304
 20
710.6422346986845
 30
0.0
 40
0.0
100
AcDbArc
 50
0.0
 51
0.0
  0
ARC
  5
31D6
330
3A7C
100
AcDbEntity
  8
Boden
100
AcDbCircle
 10
363.7433300732821
 20
710.6422346986845
 30
0.0
 40
0.0
100
AcDbArc
 50
0.0
 51
0.0
  0
ARC
  5
31D7
330
3A7C
100
AcDbEntity
  8
Boden
100
AcDbCircle
 10
363.7433300732821
 20
657.339132218228
 30
0.0
 40
0.0
100
AcDbArc
 50
0.0
 51
0.0
  0
ARC
  5
31D8
330
3A7C
100
AcDbEntity
  8
Boden
100
AcDbCircle
 10
246.2279560021304
 20
657.339132218228
 30
0.0
 40
0.0
100
AcDbArc
 50
0.0
 51
0.0
  0
LINE
  5
334D
330
3A7C
100
AcDbEntity
  8
Haube
100
AcDbLine
 10
-179.7418081896239
 20
385.6114390815902
 30
0.0
 11
116.4628322622083
 21
415.0000000000005
 31
0.0
  0
LINE
  5
3351
330
3A7C
100
AcDbEntity
  8
Haube
100
AcDbLine
 10
493.5000000000001
 20
414.9999999999999
 30
0.0
 11
789.7046404518326
 21
385.6114390815895
 31
0.0
  0
LINE
  5
3352
330
3A7C
100
AcDbEntity
  8
Haube
100
AcDbLine
 10
789.7046404518322
 20
38.35139318061832
 30
0.0
 11
493.5000000000001
 21
8.962832262208096
 31
0.0
  0
LINE
  5
3356
330
3A7C
100
AcDbEntity
  8
Haube
100
AcDbLine
 10
116.4628322622082
 20
8.962832262208195
 30
0.0
 11
-179.7418081896241
 21
38.35139318061852
 31
0.0
  0
ARC
  5
335F
330
3A7C
100
AcDbEntity
  8
Boden
100
AcDbCircle
 10
231.9804472920542
 20
572.8651196565982
 30
0.0
 40
1.337131162045065
100
AcDbArc
 50
241.7421561516525
 51
7.406226796572499
  0
ARC
  5
3360
330
3A7C
100
AcDbEntity
  8
Boden
100
AcDbCircle
 10
-1776.572619839771
 20
586.4458879679016
 30
0.0
 40
2009.923767750313
100
AcDbArc
 50
359.6177711432661
 51
0.046701401223524
  0
ARC
  5
3361
330
3A7C
100
AcDbEntity
  8
Boden
100
AcDbCircle
 10
232.0001988962731
 20
588.0924068024153
 30
0.0
 40
1.350306505692451
100
AcDbArc
 50
359.6502000649269
 51
88.76763206892969
  0
ARC
  5
3362
330
3A7C
100
AcDbEntity
  8
Boden
100
AcDbCircle
 10
231.1909789747419
 20
564.882882053804
 30
0.0
 40
24.57382044922609
100
AcDbArc
 50
88.04514923064562
 51
90.44650817589813
  0
ARC
  5
3363
330
3A7C
100
AcDbEntity
  8
Boden
100
AcDbCircle
 10
230.9503685303164
 20
589.922974995969
 30
0.0
 40
0.4695934635336838
100
AcDbArc
 50
98.05411945528134
 51
276.0026730226191
  0
ARC
  5
3364
330
3A7C
100
AcDbEntity
  8
Boden
100
AcDbCircle
 10
233.941253811013
 20
708.113894181186
 30
0.0
 40
117.7656333885936
100
AcDbArc
 50
268.5126858559851
 51
270.8911704481167
  0
ARC
  5
3365
330
3A7C
100
AcDbEntity
  8
Boden
100
AcDbCircle
 10
240.4151069859659
 20
581.2525093714067
 30
0.0
 40
9.265210740677219
100
AcDbArc
 50
69.25079267763489
 51
91.22429621443204
  0
ARC
  5
3366
330
3A7C
100
AcDbEntity
  8
Boden
100
AcDbCircle
 10
242.1395011228249
 20
586.3197505614123
 30
0.0
 40
3.919973326359417
100
AcDbArc
 50
9.993368935933715
 51
66.57996348919323
  0
ARC
  5
3367
330
3A7C
100
AcDbEntity
  8
Boden
100
AcDbCircle
 10
241.2537411982292
 20
586.0
 30
0.0
 40
4.850461072247111
100
AcDbArc
 50
280.255216294518
 51
11.89776219471264
  0
ARC
  5
3368
330
3A7C
100
AcDbEntity
  8
Boden
100
AcDbCircle
 10
241.3077294324812
 20
576.0478930991544
 30
0.0
 40
5.242023628271355
100
AcDbArc
 50
297.836681911941
 51
81.1159413268661
  0
ARC
  5
3369
330
3A7C
100
AcDbEntity
  8
Boden
100
AcDbCircle
 10
238.6685547192396
 20
587.526352277281
 30
0.0
 40
16.89776477509922
100
AcDbArc
 50
266.1060483017868
 51
287.5202549622044
  0
LINE
  5
3371
330
3A7C
100
AcDbEntity
  8
Boden
100
AcDbLine
 10
250.9466801999618
 20
572.9195896833746
 30
0.0
 11
258.3026269325906
 21
590.6507150165023
 31
0.0
  0
LINE
  5
3372
330
3A7C
100
AcDbEntity
  8
Boden
100
AcDbLine
 10
258.3026269325906
 20
590.6507150165023
 30
0.0
 11
260.2239563030534
 21
590.5958198916319
 31
0.0
  0
LINE
  5
3373
330
3A7C
100
AcDbEntity
  8
Boden
100
AcDbLine
 10
260.2239563030534
 20
590.5958198916319
 30
0.0
 11
267.0858469118489
 21
572.3706384346709
 31
0.0
  0
LINE
  5
3374
330
3A7C
100
AcDbEntity
  8
Boden
100
AcDbLine
 10
258.357522057461
 20
587.9608538978545
 30
0.0
 11
255.3931853144613
 21
580.2755364160034
 31
0.0
  0
LINE
  5
3376
330
3A7C
100
AcDbEntity
  8
Boden
100
AcDbLine
 10
261.3218588004607
 20
580.3304315408737
 30
0.0
 11
258.357522057461
 21
587.9608538978545
 31
0.0
  0
LINE
  5
3377
330
3A7C
100
AcDbEntity
  8
Boden
100
AcDbLine
 10
252.7515483004843
 20
573.3398233146864
 30
0.0
 11
254.9244803266029
 21
579.0961871031761
 31
0.0
  0
LINE
  5
3379
330
3A7C
100
AcDbEntity
  8
Boden
100
AcDbLine
 10
261.5957628629319
 20
579.0961871031761
 30
0.0
 11
263.959302961517
 21
572.9586071697533
 31
0.0
  0
LINE
  5
337A
330
3A7C
100
AcDbEntity
  8
Boden
100
AcDbLine
 10
289.3279001615721
 20
587.5828616660581
 30
0.0
 11
289.2617625151282
 21
573.1620880270129
 31
0.0
  0
LINE
  5
337B
330
3A7C
100
AcDbEntity
  8
Boden
100
AcDbLine
 10
291.8479328423543
 20
589.0560565144793
 30
0.0
 11
291.8479328423543
 21
581.4146551325246
 31
0.0
  0
LINE
  5
337C
330
3A7C
100
AcDbEntity
  8
Boden
100
AcDbLine
 10
291.8479328423543
 20
580.4924170347025
 30
0.0
 11
291.8479328423543
 21
571.99465170477
 31
0.0
  0
LINE
  5
337D
330
3A7C
100
AcDbEntity
  8
Boden
100
AcDbLine
 10
291.8479328423543
 20
571.99465170477
 30
0.0
 11
298.3035995271092
 21
571.99465170477
 31
0.0
  0
LINE
  5
337E
330
3A7C
100
AcDbEntity
  8
Boden
100
AcDbLine
 10
306.5615829516079
 20
587.638444809827
 30
0.0
 11
306.5615829516079
 21
573.3437542935841
 31
0.0
  0
LINE
  5
337F
330
3A7C
100
AcDbEntity
  8
Boden
100
AcDbLine
 10
309.1306747955409
 20
587.7043189596714
 30
0.0
 11
309.1306747955409
 21
573.0143835443619
 31
0.0
  0
LINE
  5
3380
330
3A7C
100
AcDbEntity
  8
Boden
100
AcDbLine
 10
348.1916847237617
 20
580.3888101718271
 30
0.0
 11
351.0374479970414
 21
587.7403652944663
 31
0.0
  0
LINE
  5
3381
330
3A7C
100
AcDbEntity
  8
Boden
100
AcDbLine
 10
351.0374479970414
 20
587.7403652944663
 30
0.0
 11
354.1994071895744
 21
580.3097611920138
 31
0.0
  0
LINE
  5
3383
330
3A7C
100
AcDbEntity
  8
Boden
100
AcDbLine
 10
343.9131282428698
 20
573.3676809559038
 30
0.0
 11
351.0305861552284
 21
590.6892276629156
 31
0.0
  0
LINE
  5
3384
330
3A7C
100
AcDbEntity
  8
Boden
100
AcDbLine
 10
351.0305861552284
 20
590.6892276629156
 30
0.0
 11
352.8223020364139
 21
590.6892276629156
 31
0.0
  0
LINE
  5
3385
330
3A7C
100
AcDbEntity
  8
Boden
100
AcDbLine
 10
352.8223020364139
 20
590.6892276629156
 30
0.0
 11
359.6369218432377
 21
572.9593832160349
 31
0.0
  0
LINE
  5
3386
330
3A7C
100
AcDbEntity
  8
Boden
100
AcDbLine
 10
365.6446443090504
 20
587.5043955016866
 30
0.0
 11
365.6446443090504
 21
573.2755791352882
 31
0.0
  0
LINE
  5
3387
330
3A7C
100
AcDbEntity
  8
Boden
100
AcDbLine
 10
368.0951626832634
 20
588.9272771383265
 30
0.0
 11
368.0951626832634
 21
572.0898444380883
 31
0.0
  0
ARC
  5
343B
330
3A7C
100
AcDbEntity
  8
Boden
100
AcDbCircle
 10
240.317937637751
 20
586.5714735633085
 30
0.0
 40
2.716080525672324
100
AcDbArc
 50
9.077705106465244
 51
71.5401781649318
  0
ARC
  5
343C
330
3A7C
100
AcDbEntity
  8
Boden
100
AcDbCircle
 10
234.1224498203272
 20
585.6703903547881
 30
0.0
 40
8.976567216996063
100
AcDbArc
 50
347.6121249560906
 51
8.517996777613565
  0
ARC
  5
343D
330
3A7C
100
AcDbEntity
  8
Boden
100
AcDbCircle
 10
240.9062962980106
 20
583.9382390443345
 30
0.0
 40
1.993148324963276
100
AcDbArc
 50
291.2801184342618
 51
354.4265081696893
  0
ARC
  5
3440
330
3A7C
100
AcDbEntity
  8
Boden
100
AcDbCircle
 10
240.1181786573364
 20
576.9985256291466
 30
0.0
 40
3.508674095468744
100
AcDbArc
 50
357.1653010302206
 51
68.9062435384484
  0
ARC
  5
3441
330
3A7C
100
AcDbEntity
  8
Boden
100
AcDbCircle
 10
238.8065081048292
 20
576.0263677035842
 30
0.0
 40
4.881820618853641
100
AcDbArc
 50
318.5045332902293
 51
9.415580097670826
  0
ARC
  5
3443
330
3A7C
100
AcDbEntity
  8
Boden
100
AcDbCircle
 10
248.6860301671287
 20
574.2997577677795
 30
0.0
 40
2.648660512817353
100
AcDbArc
 50
275.9006115913503
 51
328.5951733098751
  0
ARC
  5
3444
330
3A7C
100
AcDbEntity
  8
Boden
100
AcDbCircle
 10
248.9283330320287
 20
571.2161829457123
 30
0.0
 40
0.4499480684571658
100
AcDbArc
 50
86.17856256237728
 51
254.3662803348219
  0
ARC
  5
3445
330
3A7C
100
AcDbEntity
  8
Boden
100
AcDbCircle
 10
250.3321093387124
 20
435.2567534951918
 30
0.0
 40
135.5347076679323
100
AcDbArc
 50
87.98026379149162
 51
90.64470349923043
  0
ARC
  5
3446
330
3A7C
100
AcDbEntity
  8
Boden
100
AcDbCircle
 10
254.8110581874728
 20
571.140235933533
 30
0.0
 40
0.5255040143973914
100
AcDbArc
 50
304.5202828977682
 51
58.75287118546651
  0
ARC
  5
3447
330
3A7C
100
AcDbEntity
  8
Boden
100
AcDbCircle
 10
254.5614151310885
 20
573.3224795688869
 30
0.0
 40
1.809949930257608
100
AcDbArc
 50
179.45095793696
 51
286.7704034693884
  0
ARC
  5
3448
330
3A7C
100
AcDbEntity
  8
Boden
100
AcDbCircle
 10
262.6423344588505
 20
572.8775369204021
 30
0.0
 40
1.319461413738579
100
AcDbArc
 50
244.5891217861676
 51
3.522581724146423
  0
ARC
  5
344A
330
3A7C
100
AcDbEntity
  8
Boden
100
AcDbCircle
 10
261.9275235826007
 20
571.2205055656701
 30
0.0
 40
0.4883855996638627
100
AcDbArc
 50
72.2832683007544
 51
255.3383191851944
  0
ARC
  5
344B
330
3A7C
100
AcDbEntity
  8
Boden
100
AcDbCircle
 10
264.5024834807408
 20
461.2406456502919
 30
0.0
 40
109.5406227675683
100
AcDbArc
 50
87.6294506752884
 51
91.41164652711619
  0
ARC
  5
344C
330
3A7C
100
AcDbEntity
  8
Boden
100
AcDbCircle
 10
268.8503858649509
 20
571.1737108311092
 30
0.0
 40
0.5194590948217283
100
AcDbArc
 50
290.6187523134093
 51
54.19196094941833
  0
ARC
  5
344D
330
3A7C
100
AcDbEntity
  8
Boden
100
AcDbCircle
 10
269.084723251505
 20
574.5552563242767
 30
0.0
 40
2.961091343545891
100
AcDbArc
 50
227.5421864553332
 51
271.3465295269995
  0
ARC
  5
344E
330
3A7C
100
AcDbEntity
  8
Boden
100
AcDbCircle
 10
325.3248144354611
 20
573.1962526856371
 30
0.0
 40
54.68639436365383
100
AcDbArc
 50
176.4662148579481
 51
181.6624996952271
  0
ARC
  5
344F
330
3A7C
100
AcDbEntity
  8
Boden
100
AcDbCircle
 10
276.443880937291
 20
583.238915358636
 30
0.0
 40
12.98751379591796
100
AcDbArc
 50
243.5618929619952
 51
291.8707055283921
  0
ARC
  5
3450
330
3A7C
100
AcDbEntity
  8
Boden
100
AcDbCircle
 10
279.1782048365861
 20
576.0007607883173
 30
0.0
 40
5.254139781074975
100
AcDbArc
 50
293.6024815815813
 51
50.7024121393364
  0
ARC
  5
3451
330
3A7C
100
AcDbEntity
  8
Boden
100
AcDbCircle
 10
276.2319784328388
 20
572.2887401675395
 30
0.0
 40
9.992989377186369
100
AcDbArc
 50
51.10958646990287
 51
77.09504204505232
  0
ARC
  5
3452
330
3A7C
100
AcDbEntity
  8
Boden
100
AcDbCircle
 10
279.6533397394067
 20
589.5193990833791
 30
0.0
 40
7.583950877189917
100
AcDbArc
 50
223.4351021934776
 51
260.9755904351753
  0
ARC
  5
3453
330
3A7C
100
AcDbEntity
  8
Boden
100
AcDbCircle
 10
277.2074773407098
 20
586.2841615292425
 30
0.0
 40
3.645215963418735
100
AcDbArc
 50
142.9689071122106
 51
212.8810401649568
  0
ARC
  5
3454
330
3A7C
100
AcDbEntity
  8
Boden
100
AcDbCircle
 10
277.5745824369913
 20
585.5959874034587
 30
0.0
 40
4.36509321543023
100
AcDbArc
 50
76.51119205469426
 51
138.6557717008403
  0
ARC
  5
3455
330
3A7C
100
AcDbEntity
  8
Boden
100
AcDbCircle
 10
278.1516765552109
 20
586.1595501886372
 30
0.0
 40
3.707453831077375
100
AcDbArc
 50
358.9725749185721
 51
83.1671551173131
  0
ARC
  5
3456
330
3A7C
100
AcDbEntity
  8
Boden
100
AcDbCircle
 10
282.6909340474625
 20
585.9430216377759
 30
0.0
 40
0.8458157997279796
100
AcDbArc
 50
169.7814734335732
 51
2.259761661072018
  0
ARC
  5
3457
330
3A7C
100
AcDbEntity
  8
Boden
100
AcDbCircle
 10
238.7122997819227
 20
587.3458876479199
 30
0.0
 40
44.84470904021664
100
AcDbArc
 50
358.2499684202401
 51
3.069286337026336
  0
ARC
  5
3458
330
3A7C
100
AcDbEntity
  8
Boden
100
AcDbCircle
 10
278.0773524090683
 20
577.2090849426628
 30
0.0
 40
13.65744795944851
100
AcDbArc
 50
66.63975970729904
 51
95.12687237440231
  0
ARC
  5
3459
330
3A7C
100
AcDbEntity
  8
Boden
100
AcDbCircle
 10
276.6597097690465
 20
585.6992470306368
 30
0.0
 40
5.116447455179937
100
AcDbArc
 50
87.79121183467404
 51
174.0953124427338
  0
ARC
  5
345A
330
3A7C
100
AcDbEntity
  8
Boden
100
AcDbCircle
 10
275.8729138654959
 20
585.1572080787475
 30
0.0
 40
4.433171382268537
100
AcDbArc
 50
166.0545160662354
 51
256.6215956182633
  0
ARC
  5
345B
330
3A7C
100
AcDbEntity
  8
Boden
100
AcDbCircle
 10
271.1761885246137
 20
564.6026195130371
 30
0.0
 40
16.65141108760829
100
AcDbArc
 50
56.13184994779731
 51
77.26393842988386
  0
ARC
  5
345C
330
3A7C
100
AcDbEntity
  8
Boden
100
AcDbCircle
 10
277.8126384886947
 20
575.3855514100478
 30
0.0
 40
4.030695812290519
100
AcDbArc
 50
302.865985981039
 51
49.02383170319212
  0
ARC
  5
345D
330
3A7C
100
AcDbEntity
  8
Boden
100
AcDbCircle
 10
277.0580362681595
 20
577.6393019577844
 30
0.0
 40
6.360572078872883
100
AcDbArc
 50
234.461362759444
 51
297.5505692743786
  0
ARC
  5
345E
330
3A7C
100
AcDbEntity
  8
Boden
100
AcDbCircle
 10
277.4060686385303
 20
575.634473583127
 30
0.0
 40
5.139823197532382
100
AcDbArc
 50
176.2867500442015
 51
218.0924190681111
  0
ARC
  5
345F
330
3A7C
100
AcDbEntity
  8
Boden
100
AcDbCircle
 10
271.406546122346
 20
576.0031016323848
 30
0.0
 40
0.8712236078651037
100
AcDbArc
 50
357.6477723920966
 51
139.6687090403125
  0
ARC
  5
3460
330
3A7C
100
AcDbEntity
  8
Boden
100
AcDbCircle
 10
288.0052020763879
 20
588.0233175170857
 30
0.0
 40
1.394106015070054
100
AcDbArc
 50
341.5823434545274
 51
96.67968799881741
  0
ARC
  5
3461
330
3A7C
100
AcDbEntity
  8
Boden
100
AcDbCircle
 10
287.580467303743
 20
590.7170122942689
 30
0.0
 40
1.335126378783406
100
AcDbArc
 50
233.8430869797305
 51
281.3420759654674
  0
ARC
  5
3462
330
3A7C
100
AcDbEntity
  8
Boden
100
AcDbCircle
 10
287.1183366104179
 20
589.9331087834839
 30
0.0
 40
0.4387426491046928
100
AcDbArc
 50
137.9108378261681
 51
222.0891621738319
  0
ARC
  5
3463
330
3A7C
100
AcDbEntity
  8
Boden
100
AcDbCircle
 10
287.244372254052
 20
589.8479180243611
 30
0.0
 40
0.5897595377451427
100
AcDbArc
 50
74.50623312682472
 51
139.9766856710636
  0
ARC
  5
3464
330
3A7C
100
AcDbEntity
  8
Boden
100
AcDbCircle
 10
294.2064584448687
 20
751.6684128103778
 30
0.0
 40
161.3956730392978
100
AcDbArc
 50
267.5836582045914
 51
272.7236747417319
  0
ARC
  5
3465
330
3A7C
100
AcDbEntity
  8
Boden
100
AcDbCircle
 10
257.888465287908
 20
587.0
 30
0.0
 40
44.12286815990205
100
AcDbArc
 50
358.7013381474909
 51
4.491173942746223
  0
ARC
  5
3466
330
3A7C
100
AcDbEntity
  8
Boden
100
AcDbCircle
 10
301.3066141163251
 20
586.1039471428004
 30
0.0
 40
0.7011340757485885
100
AcDbArc
 50
198.4992310344541
 51
351.4741430495172
  0
ARC
  5
3467
330
3A7C
100
AcDbEntity
  8
Boden
100
AcDbCircle
 10
297.7312299559585
 20
586.4265585686655
 30
0.0
 40
2.961080254553623
100
AcDbArc
 50
349.3925017399771
 51
96.91227772803481
  0
ARC
  5
3468
330
3A7C
100
AcDbEntity
  8
Boden
100
AcDbCircle
 10
294.3439600599633
 20
705.8653991285864
 30
0.0
 40
116.5387028170382
100
AcDbArc
 50
269.5806177316913
 51
271.4903002394403
  0
ARC
  5
3469
330
3A7C
100
AcDbEntity
  8
Boden
100
AcDbCircle
 10
292.161266117968
 20
612.3139207774844
 30
0.0
 40
23.02253318210495
100
AcDbArc
 50
269.2201888297392
 51
273.311005807518
  0
ARC
  5
346A
330
3A7C
100
AcDbEntity
  8
Boden
100
AcDbCircle
 10
287.8958197939434
 20
573.0281366428101
 30
0.0
 40
1.372494987563911
100
AcDbArc
 50
269.674429760699
 51
5.600811377412784
  0
ARC
  5
346B
330
3A7C
100
AcDbEntity
  8
Boden
100
AcDbCircle
 10
287.6108592288949
 20
568.2227485194661
 30
0.0
 40
3.444085659340562
100
AcDbArc
 50
85.38414871304185
 51
100.2469646553787
  0
ARC
  5
346C
330
3A7C
100
AcDbEntity
  8
Boden
100
AcDbCircle
 10
287.051124920969
 20
571.1976036264341
 30
0.0
 40
0.4176663848056026
100
AcDbArc
 50
97.28179212007683
 51
272.7444353899955
  0
ARC
  5
346D
330
3A7C
100
AcDbEntity
  8
Boden
100
AcDbCircle
 10
292.7357058003118
 20
219.1045655027262
 30
0.0
 40
351.7214686662165
100
AcDbArc
 50
88.59207109802036
 51
90.92280606598908
  0
ARC
  5
346F
330
3A7C
100
AcDbEntity
  8
Boden
100
AcDbCircle
 10
301.4126258298874
 20
571.3337740996002
 30
0.0
 40
0.6149183939951748
100
AcDbArc
 50
266.7426748993786
 51
8.348651864715547
  0
ARC
  5
3470
330
3A7C
100
AcDbEntity
  8
Boden
100
AcDbCircle
 10
582.4604206489099
 20
575.0
 30
0.0
 40
280.4622034259937
100
AcDbArc
 50
179.7957090110011
 51
180.730755275628
  0
ARC
  5
3471
330
3A7C
100
AcDbEntity
  8
Boden
100
AcDbCircle
 10
301.3624128698575
 20
575.848278320883
 30
0.0
 40
0.6553905831156233
100
AcDbArc
 50
13.38528760109903
 51
176.6286152252544
  0
ARC
  5
3472
330
3A7C
100
AcDbEntity
  8
Boden
100
AcDbCircle
 10
297.248948355495
 20
575.3350528385704
 30
0.0
 40
3.502937171643515
100
AcDbArc
 50
287.5222563816664
 51
9.062727372415186
  0
ARC
  5
3473
330
3A7C
100
AcDbEntity
  8
Boden
100
AcDbCircle
 10
292.7983085182712
 20
596.6135778443039
 30
0.0
 40
15.22860681493925
100
AcDbArc
 50
266.4220021131096
 51
282.1422604522629
  0
ARC
  5
3474
330
3A7C
100
AcDbEntity
  8
Boden
100
AcDbCircle
 10
294.8962790954807
 20
583.6200110372589
 30
0.0
 40
2.193183834163181
100
AcDbArc
 50
300.2603167368622
 51
3.854851525660693
  0
ARC
  5
3475
330
3A7C
100
AcDbEntity
  8
Boden
100
AcDbCircle
 10
297.6084247135089
 20
583.9292241785331
 30
0.0
 40
0.548329045981452
100
AcDbArc
 50
354.520322307615
 51
197.1586623154098
  0
ARC
  5
3476
330
3A7C
100
AcDbEntity
  8
Boden
100
AcDbCircle
 10
321.6878529918072
 20
581.172501351
 30
0.0
 40
23.68848108422238
100
AcDbArc
 50
173.4446169685311
 51
187.520992418543
  0
ARC
  5
3477
330
3A7C
100
AcDbEntity
  8
Boden
100
AcDbCircle
 10
297.7115009942057
 20
578.1393718133347
 30
0.0
 40
0.4962676259035754
100
AcDbArc
 50
182.9373244514447
 51
352.1893790549387
  0
ARC
  5
3478
330
3A7C
100
AcDbEntity
  8
Boden
100
AcDbCircle
 10
295.0502829839386
 20
578.4769582122436
 30
0.0
 40
2.195817608840831
100
AcDbArc
 50
350.4840608479878
 51
76.67356660201388
  0
ARC
  5
3479
330
3A7C
100
AcDbEntity
  8
Boden
100
AcDbCircle
 10
294.4299488040286
 20
558.2902913774952
 30
0.0
 40
22.35176033615164
100
AcDbArc
 50
87.11122652287945
 51
96.633465481195
  0
ARC
  5
347A
330
3A7C
100
AcDbEntity
  8
Boden
100
AcDbCircle
 10
304.908531709825
 20
587.7532242762197
 30
0.0
 40
1.657031301413889
100
AcDbArc
 50
356.0280476455231
 51
90.06024186124475
  0
ARC
  5
347B
330
3A7C
100
AcDbEntity
  8
Boden
100
AcDbCircle
 10
304.2381283748797
 20
584.3748269943396
 30
0.0
 40
5.079629854816351
100
AcDbArc
 50
82.43587126121423
 51
90.4738791988709
  0
ARC
  5
347C
330
3A7C
100
AcDbEntity
  8
Boden
100
AcDbCircle
 10
304.3164615328288
 20
589.8516859848459
 30
0.0
 40
0.4152252049375195
100
AcDbArc
 50
82.75424533875595
 51
253.1521755041837
  0
ARC
  5
347D
330
3A7C
100
AcDbEntity
  8
Boden
100
AcDbCircle
 10
307.4908158384542
 20
637.834569705564
 30
0.0
 40
47.67330895354146
100
AcDbArc
 50
266.2451820068699
 51
274.9146119829877
  0
ARC
  5
347E
330
3A7C
100
AcDbEntity
  8
Boden
100
AcDbCircle
 10
311.4176211554973
 20
589.9628313501476
 30
0.0
 40
0.4055024902976574
100
AcDbArc
 50
279.9248208253472
 51
67.15754641722216
  0
ARC
  5
347F
330
3A7C
100
AcDbEntity
  8
Boden
100
AcDbCircle
 10
311.0958333045775
 20
587.636472553677
 30
0.0
 40
1.966329346891074
100
AcDbArc
 50
78.51024209835701
 51
178.0226687524043
  0
ARC
  5
3480
330
3A7C
100
AcDbEntity
  8
Boden
100
AcDbCircle
 10
304.9413276188884
 20
573.2667889223632
 30
0.0
 40
1.622082307274445
100
AcDbArc
 50
265.9549377252152
 51
2.719619879748185
  0
ARC
  5
3481
330
3A7C
100
AcDbEntity
  8
Boden
100
AcDbCircle
 10
304.8297435635137
 20
571.2313485531001
 30
0.0
 40
0.4174085215580835
100
AcDbArc
 50
90.38973912033063
 51
281.3650460929505
  0
ARC
  5
3482
330
3A7C
100
AcDbEntity
  8
Boden
100
AcDbCircle
 10
309.5387684386877
 20
191.3407053505304
 30
0.0
 40
379.5096239623216
100
AcDbArc
 50
88.6272416795233
 51
90.69853564121398
  0
ARC
  5
3483
330
3A7C
100
AcDbEntity
  8
Boden
100
AcDbCircle
 10
318.6590068800937
 20
571.0939718391313
 30
0.0
 40
0.3537046993935898
100
AcDbArc
 50
265.3979446494764
 51
21.66358657041129
  0
ARC
  5
3484
330
3A7C
100
AcDbEntity
  8
Boden
100
AcDbCircle
 10
335.1156336340808
 20
573.5708438652108
 30
0.0
 40
16.29768225715239
100
AcDbArc
 50
171.4281709686678
 51
188.277363162851
  0
ARC
  5
3485
330
3A7C
100
AcDbEntity
  8
Boden
100
AcDbCircle
 10
318.3290365056611
 20
575.9529291821023
 30
0.0
 40
0.6726125724611552
100
AcDbArc
 50
4.01295718865083
 51
171.1930111542819
  0
ARC
  5
3486
330
3A7C
100
AcDbEntity
  8
Boden
100
AcDbCircle
 10
309.1315048180676
 20
576.3107794938861
 30
0.0
 40
8.536654923635515
100
AcDbArc
 50
337.180394389209
 51
358.2891319137575
  0
ARC
  5
3487
330
3A7C
100
AcDbEntity
  8
Boden
100
AcDbCircle
 10
314.8390398851126
 20
574.5608365725226
 30
0.0
 40
2.665700550372913
100
AcDbArc
 50
273.4617348656442
 51
324.1598526203015
  0
ARC
  5
3488
330
3A7C
100
AcDbEntity
  8
Boden
100
AcDbCircle
 10
312.4338659978367
 20
602.2619389851407
 30
0.0
 40
30.47018842499111
100
AcDbArc
 50
264.1227525000093
 51
274.831050164456
  0
ARC
  5
3489
330
3A7C
100
AcDbEntity
  8
Boden
100
AcDbCircle
 10
311.4429414450752
 20
572.8658943275784
 30
0.0
 40
2.317029586787643
100
AcDbArc
 50
176.3256231676774
 51
203.232394230195
  0
ARC
  5
348E
330
3A7C
100
AcDbEntity
  8
Boden
100
AcDbCircle
 10
338.5210734146788
 20
580.6264535881438
 30
0.0
 40
17.37299248297721
100
AcDbArc
 50
161.9826728087274
 51
203.8575679797576
  0
ARC
  5
3491
330
3A7C
100
AcDbEntity
  8
Boden
100
AcDbCircle
 10
326.0232195712032
 20
580.4556635920773
 30
0.0
 40
14.49387535172305
100
AcDbArc
 50
333.5506624704545
 51
30.13269472168987
  0
ARC
  5
3497
330
3A7C
100
AcDbEntity
  8
Boden
100
AcDbCircle
 10
331.2230799590732
 20
577.5713358351356
 30
0.0
 40
6.267674524430259
100
AcDbArc
 50
283.5948671746875
 51
356.0148759375726
  0
ARC
  5
3498
330
3A7C
100
AcDbEntity
  8
Boden
100
AcDbCircle
 10
316.0981159950301
 20
580.1453271501308
 30
0.0
 40
21.58829287325331
100
AcDbArc
 50
351.9864138678474
 51
17.63266866465428
  0
ARC
  5
349B
330
3A7C
100
AcDbEntity
  8
Boden
100
AcDbCircle
 10
337.7475205868823
 20
579.9158401956272
 30
0.0
 40
14.05334288819521
100
AcDbArc
 50
179.7969528790173
 51
204.8949638194995
  0
ARC
  5
349C
330
3A7C
100
AcDbEntity
  8
Boden
100
AcDbCircle
 10
338.3483568202561
 20
580.883881059915
 30
0.0
 40
14.68283149430466
100
AcDbArc
 50
155.3830969653265
 51
183.5855158840656
  0
ARC
  5
34A1
330
3A7C
100
AcDbEntity
  8
Boden
100
AcDbCircle
 10
341.6866302418592
 20
573.8655317243469
 30
0.0
 40
2.281479505966107
100
AcDbArc
 50
273.3060968387608
 51
347.3958457621512
  0
ARC
  5
34A2
330
3A7C
100
AcDbEntity
  8
Boden
100
AcDbCircle
 10
341.7794119855358
 20
571.1869307778687
 30
0.0
 40
0.4027908603222267
100
AcDbArc
 50
84.47342199641362
 51
260.5348627241282
  0
ARC
  5
34A3
330
3A7C
100
AcDbEntity
  8
Boden
100
AcDbCircle
 10
344.7400930584423
 20
546.6956774206457
 30
0.0
 40
24.28333749552006
100
AcDbArc
 50
83.24870730828788
 51
97.16054651964193
  0
ARC
  5
34A4
330
3A7C
100
AcDbEntity
  8
Boden
100
AcDbCircle
 10
347.5658844727735
 20
571.1783681485932
 30
0.0
 40
0.368876640517287
100
AcDbArc
 50
274.5017488414247
 51
67.23543182032509
  0
ARC
  5
34A5
330
3A7C
100
AcDbEntity
  8
Boden
100
AcDbCircle
 10
347.7878643673608
 20
576.0595448885186
 30
0.0
 40
4.541726015142686
100
AcDbArc
 50
248.8968426313292
 51
269.0002433153433
  0
ARC
  5
34A6
330
3A7C
100
AcDbEntity
  8
Boden
100
AcDbCircle
 10
346.7148022209307
 20
572.9586789480126
 30
0.0
 40
1.267729711485445
100
AcDbArc
 50
168.6475210260948
 51
243.6756118579323
  0
ARC
  5
34A7
330
3A7C
100
AcDbEntity
  8
Boden
100
AcDbCircle
 10
416.8515039247982
 20
551.5465775975421
 30
0.0
 40
74.59408976659265
100
AcDbArc
 50
158.3017819477745
 51
163.1184779555114
  0
ARC
  5
34A9
330
3A7C
100
AcDbEntity
  8
Boden
100
AcDbCircle
 10
317.563981443602
 20
561.2928334483001
 30
0.0
 40
40.99298745445542
100
AcDbArc
 50
17.02409120137459
 51
25.88548945181716
  0
ARC
  5
34AA
330
3A7C
100
AcDbEntity
  8
Boden
100
AcDbCircle
 10
355.5483274926897
 20
572.9670843221659
 30
0.0
 40
1.255833598759271
100
AcDbArc
 50
298.5242449672941
 51
15.11278683250796
  0
ARC
  5
34AB
330
3A7C
100
AcDbEntity
  8
Boden
100
AcDbCircle
 10
354.416067746502
 20
577.4268951836096
 30
0.0
 40
5.826571345848379
100
AcDbArc
 50
276.0449347477327
 51
287.2926132530044
  0
ARC
  5
34AC
330
3A7C
100
AcDbEntity
  8
Boden
100
AcDbCircle
 10
355.0242623972321
 20
571.196965678925
 30
0.0
 40
0.4357895170514727
100
AcDbArc
 50
89.29103532496013
 51
244.3104106563847
  0
ARC
  5
34AD
330
3A7C
100
AcDbEntity
  8
Boden
100
AcDbCircle
 10
358.2835944709096
 20
524.1390207450222
 30
0.0
 40
46.7924582259602
100
AcDbArc
 50
85.8436263658958
 51
94.2260898227453
  0
ARC
  5
34AE
330
3A7C
100
AcDbEntity
  8
Boden
100
AcDbCircle
 10
361.6031075609711
 20
571.188831300244
 30
0.0
 40
0.3871626034478578
100
AcDbArc
 50
280.7097630999916
 51
79.80245629387854
  0
ARC
  5
34AF
330
3A7C
100
AcDbEntity
  8
Boden
100
AcDbCircle
 10
361.5091736758267
 20
573.5164890515181
 30
0.0
 40
1.953380105499796
100
AcDbArc
 50
196.5708598993569
 51
274.7712576074484
  0
ARC
  5
34B0
330
3A7C
100
AcDbEntity
  8
Boden
100
AcDbCircle
 10
363.7182870091258
 20
587.6400933735944
 30
0.0
 40
1.931130849894171
100
AcDbArc
 50
355.9705848285386
 51
96.0389450930119
  0
ARC
  5
34B1
330
3A7C
100
AcDbEntity
  8
Boden
100
AcDbCircle
 10
363.5680510713109
 20
589.9242522798879
 30
0.0
 40
0.3675751571178015
100
AcDbArc
 50
104.7279122390415
 51
261.7211329739954
  0
ARC
  5
34B4
330
3A7C
100
AcDbEntity
  8
Boden
100
AcDbCircle
 10
359.0764011032433
 20
580.8049224115463
 30
0.0
 40
22.22827009778438
100
AcDbArc
 50
342.8962004422933
 51
13.40457987271097
  0
ARC
  5
34B5
330
3A7C
100
AcDbEntity
  8
Boden
100
AcDbCircle
 10
374.9912951943489
 20
576.860902217685
 30
0.0
 40
5.927712793997659
100
AcDbArc
 50
283.8385300564884
 51
334.055282538692
  0
ARC
  5
34B8
330
3A7C
100
AcDbEntity
  8
Boden
100
AcDbCircle
 10
363.5966743684356
 20
571.106877101182
 30
0.0
 40
0.4276316687593604
100
AcDbArc
 50
85.78172879810323
 51
247.4227102030067
  0
ARC
  5
34B9
330
3A7C
100
AcDbEntity
  8
Boden
100
AcDbCircle
 10
364.146756323564
 20
572.9711797678717
 30
0.0
 40
1.528504953197092
100
AcDbArc
 50
250.1655587076604
 51
11.48716618224869
  0
ARC
  5
34BB
330
3A7C
100
AcDbEntity
  8
Boden
100
AcDbCircle
 10
373.3810182699864
 20
584.1698490240417
 30
0.0
 40
5.094257580125754
100
AcDbArc
 50
11.44396977025107
 51
71.46975335941843
  0
ARC
  5
34BC
330
3A7C
100
AcDbEntity
  8
Boden
100
AcDbCircle
 10
363.1169753821529
 20
580.7088820269728
 30
0.0
 40
15.89883595548111
100
AcDbArc
 50
335.2923513658586
 51
16.33545663040846
  0
ARC
  5
34BD
330
3A7C
100
AcDbEntity
  8
Boden
100
AcDbCircle
 10
373.3706107616148
 20
576.8821497061047
 30
0.0
 40
5.049672972935737
100
AcDbArc
 50
273.0179309922257
 51
326.0676571469606
  0
LINE
  5
34C0
330
3A7C
100
AcDbEntity
  8
Boden
100
AcDbLine
 10
235.853093321238
 20
589.2647314856492
 30
0.0
 11
235.8744223416077
 21
590.260375939135
 31
0.0
  0
LINE
  5
34C1
330
3A7C
100
AcDbEntity
  8
Boden
100
AcDbLine
 10
237.6267562562032
 20
590.4059442409074
 30
0.0
 11
237.6019037058374
 21
589.4244889142099
 31
0.0
  0
LINE
  5
34C3
330
3A7C
100
AcDbEntity
  8
Boden
100
AcDbLine
 10
237.5240010954799
 20
581.4853424537654
 30
0.0
 11
237.5271525996311
 21
580.7320606524526
 31
0.0
  0
LINE
  5
34C4
330
3A7C
100
AcDbEntity
  8
Boden
100
AcDbLine
 10
235.8610892891107
 20
571.8200325157229
 30
0.0
 11
235.8501744216443
 21
570.6318163807653
 31
0.0
  0
LINE
  5
34C5
330
3A7C
100
AcDbEntity
  8
Boden
100
AcDbLine
 10
237.4750138941527
 20
570.6661132481223
 30
0.0
 11
237.523979522933
 21
571.6856356007733
 31
0.0
  0
ARC
  5
34C8
330
3A7C
100
AcDbEntity
  8
Boden
100
AcDbCircle
 10
235.7744452795163
 20
590.2625176803824
 30
0.0
 40
0.1
100
AcDbArc
 50
358.7727788227324
 51
90.89117044810966
  0
ARC
  5
34CA
330
3A7C
100
AcDbEntity
  8
Boden
100
AcDbCircle
 10
231.2320966757773
 20
571.2068873592302
 30
0.0
 40
0.4940935491789434
100
AcDbArc
 50
76.50536097493416
 51
259.1080736318573
  0
ARC
  5
34CB
330
3A7C
100
AcDbEntity
  8
Boden
100
AcDbCircle
 10
232.8778457357475
 20
538.354017358756
 30
0.0
 40
32.41436483292905
100
AcDbArc
 50
84.73870731452175
 51
93.07553823494466
  0
ARC
  5
34CC
330
3A7C
100
AcDbEntity
  8
Boden
100
AcDbCircle
 10
238.5338804717848
 20
578.7556312170879
 30
0.0
 40
7.141760143074023
100
AcDbArc
 50
261.8706793374075
 51
303.3783773218594
  0
ARC
  5
34CD
330
3A7C
100
AcDbEntity
  8
Boden
100
AcDbCircle
 10
238.4485293706681
 20
589.560322019054
 30
0.0
 40
8.127733233285312
100
AcDbArc
 50
263.468477571567
 51
293.04118991064
  0
ARC
  5
34CE
330
3A7C
100
AcDbEntity
  8
Boden
100
AcDbCircle
 10
237.7044643575279
 20
565.8434485633582
 30
0.0
 40
14.88966787403323
100
AcDbArc
 50
75.70502017744204
 51
90.68231579098071
  0
ARC
  5
34CF
330
3A7C
100
AcDbEntity
  8
Boden
100
AcDbCircle
 10
240.6543662988198
 20
549.537933527003
 30
0.0
 40
40.98000393218571
100
AcDbArc
 50
90.6113109068947
 51
94.23688279669703
  0
ARC
  5
34D0
330
3A7C
100
AcDbEntity
  8
Boden
100
AcDbCircle
 10
238.7218708959921
 20
580.6518261331033
 30
0.0
 40
8.843864470808871
100
AcDbArc
 50
73.87604643277616
 51
97.2753442259813
  0
LINE
  5
34D1
330
3A7C
100
AcDbEntity
  8
Boden
100
AcDbLine
 10
254.9244803266029
 20
579.0961871031761
 30
0.0
 11
255.3931853144612
 21
580.2755364160033
 31
0.0
  0
LINE
  5
34D2
330
3A7C
100
AcDbEntity
  8
Boden
100
AcDbLine
 10
256.6672127662152
 20
579.0961871031761
 30
0.0
 11
257.1372032244718
 21
580.291684729985
 31
0.0
  0
LINE
  5
34D3
330
3A7C
100
AcDbEntity
  8
Boden
100
AcDbLine
 10
257.1372032244718
 20
580.291684729985
 30
0.0
 11
261.3218588004607
 21
580.3304315408737
 31
0.0
  0
LINE
  5
34D4
330
3A7C
100
AcDbEntity
  8
Boden
100
AcDbLine
 10
256.6672127662152
 20
579.0961871031761
 30
0.0
 11
261.5957628629319
 21
579.0961871031761
 31
0.0
  0
LINE
  5
34D5
330
3A7C
100
AcDbEntity
  8
Boden
100
AcDbLine
 10
329.7291312106026
 20
589.963069948669
 30
0.0
 11
329.8396741980107
 21
591.0212799944895
 31
0.0
  0
LINE
  5
34D6
330
3A7C
100
AcDbEntity
  8
Boden
100
AcDbLine
 10
331.7381678702357
 20
590.025747414112
 30
0.0
 11
331.8922034477065
 21
591.0519969193003
 31
0.0
  0
LINE
  5
34D7
330
3A7C
100
AcDbEntity
  8
Boden
100
AcDbLine
 10
329.7687757723931
 20
571.3411468809878
 30
0.0
 11
329.8009807663482
 21
570.1267112587361
 31
0.0
  0
LINE
  5
34D8
330
3A7C
100
AcDbEntity
  8
Boden
100
AcDbLine
 10
331.7812933746123
 20
571.3140414522611
 30
0.0
 11
331.7746924428445
 21
570.205775868568
 31
0.0
  0
ARC
  5
34DA
330
3A7C
100
AcDbEntity
  8
Boden
100
AcDbCircle
 10
330.4619242686981
 20
583.5380757313021
 30
0.0
 40
6.466648000254174
100
AcDbArc
 50
96.50666787212472
 51
147.6323046304247
  0
ARC
  5
34DC
330
3A7C
100
AcDbEntity
  8
Boden
100
AcDbCircle
 10
331.994400165337
 20
582.9050703123402
 30
0.0
 40
8.147567570035235
100
AcDbArc
 50
36.32717813313759
 51
90.71869230939528
  0
ARC
  5
34DD
330
3A7C
100
AcDbEntity
  8
Boden
100
AcDbCircle
 10
331.9644458220953
 20
585.0461856465116
 30
0.0
 40
4.984700302811064
100
AcDbArc
 50
19.19052446263171
 51
92.60180705946281
  0
ARC
  5
34E0
330
3A7C
100
AcDbEntity
  8
Boden
100
AcDbCircle
 10
329.5440788478832
 20
576.5440788478832
 30
0.0
 40
5.207781654411558
100
AcDbArc
 50
209.2430158306939
 51
272.4728731158061
  0
ARC
  5
34E2
330
3A7C
100
AcDbEntity
  8
Boden
100
AcDbCircle
 10
332.2166372448096
 20
578.1408410800871
 30
0.0
 40
7.947362777616457
100
AcDbArc
 50
266.8121952651569
 51
328.59840763231
  0
ARC
  5
34E3
330
3A7C
100
AcDbEntity
  8
Boden
100
AcDbCircle
 10
331.012188833492
 20
578.189739805477
 30
0.0
 40
6.918580030583374
100
AcDbArc
 50
276.3824819947214
 51
284.0886408512607
  0
LINE
  5
34E4
330
3A7C
100
AcDbEntity
  8
Boden
100
AcDbLine
 10
347.5428477219394
 20
579.1253448553512
 30
0.0
 11
348.1916847237617
 21
580.3888101718271
 31
0.0
  0
LINE
  5
34E5
330
3A7C
100
AcDbEntity
  8
Boden
100
AcDbLine
 10
349.4824967609879
 20
579.1343890012289
 30
0.0
 11
350.0282164412128
 21
580.364645280808
 31
0.0
  0
LINE
  5
34E6
330
3A7C
100
AcDbEntity
  8
Boden
100
AcDbLine
 10
350.0282164412128
 20
580.364645280808
 30
0.0
 11
354.1994071895744
 21
580.3097611920138
 31
0.0
  0
LINE
  5
34E7
330
3A7C
100
AcDbEntity
  8
Boden
100
AcDbLine
 10
354.4440757771932
 20
579.1893041167463
 30
0.0
 11
349.4824967609879
 21
579.1343890012289
 31
0.0
  0
LINE
  5
34E8
330
3A7C
100
AcDbEntity
  8
Boden
100
AcDbLine
 10
368.0951626832634
 20
588.9272771383266
 30
0.0
 11
368.0771236994952
 21
590.2040605354513
 31
0.0
  0
LINE
  5
34E9
330
3A7C
100
AcDbEntity
  8
Boden
100
AcDbLine
 10
368.0951626832634
 20
572.0898444380883
 30
0.0
 11
368.0803110242784
 21
570.6986520366924
 31
0.0
  0
LINE
  5
34EA
330
3A7C
100
AcDbEntity
  8
Boden
100
AcDbLine
 10
369.5776759630979
 20
589.1975424299709
 30
0.0
 11
369.6020872801075
 21
590.2410588311941
 31
0.0
  0
LINE
  5
34EC
330
3A7C
100
AcDbEntity
  8
Boden
100
AcDbLine
 10
369.9406068248344
 20
571.7493049081623
 30
0.0
 11
369.9305543861234
 21
570.6583032774589
 31
0.0
  0
ARC
  5
34ED
330
3A7C
100
AcDbEntity
  8
Boden
100
AcDbCircle
 10
332.2219571163072
 20
2193.444627300275
 30
0.0
 40
1622.133907913984
100
AcDbArc
 50
271.3323895266084
 51
271.4629708145993
  0
ARC
  5
34EE
330
3A7C
100
AcDbEntity
  8
Boden
100
AcDbCircle
 10
370.7913282104969
 20
605.3587563770212
 30
0.0
 40
34.71112756583471
100
AcDbArc
 50
268.5790215738701
 51
279.3139580924224
  0
ARC
  5
34EF
330
3A7C
100
AcDbEntity
  8
Boden
100
AcDbCircle
 10
365.818380167671
 20
592.2570393410216
 30
0.0
 40
21.67672471485341
100
AcDbArc
 50
263.6808378682817
 51
275.9896245856476
  0
ARC
  5
34F0
330
3A7C
100
AcDbEntity
  8
Boden
100
AcDbCircle
 10
360.9664644292762
 20
297.793760812967
 30
0.0
 40
292.4967433306741
100
AcDbArc
 50
88.60698994173775
 51
89.50868683095995
  0
ARC
  5
34F2
330
3A7C
100
AcDbEntity
  8
Boden
100
AcDbCircle
 10
371.9143999362315
 20
578.8208556615828
 30
0.0
 40
10.63653642948957
100
AcDbArc
 50
73.13638999490652
 51
102.6907335681181
  0
ARC
  5
34F4
330
3A7C
100
AcDbEntity
  8
Boden
100
AcDbCircle
 10
374.2932893626717
 20
583.263294611614
 30
0.0
 40
6.949536724809668
100
AcDbArc
 50
22.8148234932145
 51
75.78351830425063
  0
ARC
  5
34F5
330
3A7C
100
AcDbEntity
  8
Boden
100
AcDbCircle
 10
372.0459047580634
 20
570.0784814456555
 30
0.0
 40
20.31013960300115
100
AcDbArc
 50
78.7736320458971
 51
96.91085941855782
  0
ARC
  5
34F6
330
3A7C
100
AcDbEntity
  8
Boden
100
AcDbCircle
 10
329.7328707210484
 20
582.5573887673424
 30
0.0
 40
8.464565061931337
100
AcDbArc
 50
89.27703894898471
 51
156.0017600786668
  0
ARC
  5
34F7
330
3A7C
100
AcDbEntity
  8
Boden
100
AcDbCircle
 10
329.501212449316
 20
578.6425049297551
 30
0.0
 40
8.52106817783211
100
AcDbArc
 50
216.2851809426113
 51
272.0160622780534
  0
LINE
  5
35CB
330
3A7C
100
AcDbEntity
  8
Anlasern
100
AcDbLine
 10
179.5828322622084
 20
384.0511779500433
 30
0.0
 11
179.5828322622084
 21
414.0000000000006
 31
0.0
  0
LINE
  5
35D2
330
3A7C
100
AcDbEntity
  8
Anlasern
100
AcDbLine
 10
179.5828322622082
 20
30.21764411499898
 30
0.0
 11
179.5828322622082
 21
9.962832262208194
 31
0.0
  0
LINE
  5
35D8
330
3A7C
100
AcDbEntity
  8
Anlasern
100
AcDbLine
 10
430.3800000000002
 20
9.962832262208215
 30
0.0
 11
430.3800000000002
 21
30.217644114999
 31
0.0
  0
LINE
  5
35DE
330
3A7C
100
AcDbEntity
  8
Anlasern
100
AcDbLine
 10
430.3800000000003
 20
414.0000000000006
 30
0.0
 11
430.3800000000003
 21
384.0511779500433
 31
0.0
  0
LINE
  5
35DF
330
3A7C
100
AcDbEntity
  8
Haube
100
AcDbLine
 10
493.5000000000001
 20
414.9999999999999
 30
0.0
 11
116.4628322622083
 21
415.0000000000005
 31
0.0
  0
LINE
  5
35E0
330
3A7C
100
AcDbEntity
  8
Haube
100
AcDbLine
 10
493.5000000000001
 20
8.962832262208096
 30
0.0
 11
116.4628322622082
 21
8.962832262208195
 31
0.0
  0
LINE
  5
35E1
330
3A7C
100
AcDbEntity
  8
Boden
100
AcDbLine
 10
291.8479328423543
 20
589.0560565144793
 30
0.0
 11
291.8479328423543
 21
589.293519903922
 31
0.0
  0
LINE
  5
35E2
330
3A7C
100
AcDbEntity
  8
Boden
100
AcDbLine
 10
235.853093321238
 20
589.2647314856492
 30
0.0
 11
235.8610892891107
 21
571.8200325157229
 31
0.0
  0
LINE
  5
3696
330
3A7C
100
AcDbEntity
  8
Anlasern
100
AcDbLine
 10
169.0828322622084
 20
384.0511779500433
 30
0.0
 11
169.0828322622084
 21
414.0000000000006
 31
0.0
  0
LINE
  5
3697
330
3A7C
100
AcDbEntity
  8
Anlasern
100
AcDbLine
 10
158.5828322622084
 20
384.0511779500433
 30
0.0
 11
158.5828322622084
 21
414.0000000000006
 31
0.0
  0
LINE
  5
3698
330
3A7C
100
AcDbEntity
  8
Anlasern
100
AcDbLine
 10
148.0828322622084
 20
384.0511779500433
 30
0.0
 11
148.0828322622084
 21
414.0000000000006
 31
0.0
  0
LINE
  5
3699
330
3A7C
100
AcDbEntity
  8
Anlasern
100
AcDbLine
 10
137.5828322622084
 20
384.0511779500433
 30
0.0
 11
137.5828322622084
 21
414.0000000000006
 31
0.0
  0
LINE
  5
369A
330
3A7C
100
AcDbEntity
  8
Anlasern
100
AcDbLine
 10
127.0828322622084
 20
384.0511779500433
 30
0.0
 11
127.0828322622084
 21
414.0000000000006
 31
0.0
  0
LINE
  5
369B
330
3A7C
100
AcDbEntity
  8
Anlasern
100
AcDbLine
 10
116.5828322622084
 20
384.0511779500433
 30
0.0
 11
116.5828322622084
 21
414.0000000000006
 31
0.0
  0
LINE
  5
369C
330
3A7C
100
AcDbEntity
  8
Anlasern
100
AcDbLine
 10
440.8800000000003
 20
414.0000000000006
 30
0.0
 11
440.8800000000003
 21
384.0511779500433
 31
0.0
  0
LINE
  5
369E
330
3A7C
100
AcDbEntity
  8
Anlasern
100
AcDbLine
 10
451.3800000000003
 20
414.0000000000006
 30
0.0
 11
451.3800000000003
 21
384.0511779500433
 31
0.0
  0
LINE
  5
369F
330
3A7C
100
AcDbEntity
  8
Anlasern
100
AcDbLine
 10
461.8800000000003
 20
414.0000000000006
 30
0.0
 11
461.8800000000003
 21
384.0511779500433
 31
0.0
  0
LINE
  5
36A0
330
3A7C
100
AcDbEntity
  8
Anlasern
100
AcDbLine
 10
472.3800000000003
 20
414.0000000000006
 30
0.0
 11
472.3800000000003
 21
384.0511779500433
 31
0.0
  0
LINE
  5
36A1
330
3A7C
100
AcDbEntity
  8
Anlasern
100
AcDbLine
 10
482.8800000000003
 20
414.0000000000006
 30
0.0
 11
482.8800000000003
 21
384.0511779500433
 31
0.0
  0
LINE
  5
36A2
330
3A7C
100
AcDbEntity
  8
Anlasern
100
AcDbLine
 10
493.3800000000003
 20
414.0000000000006
 30
0.0
 11
493.3800000000003
 21
384.0511779500433
 31
0.0
  0
LINE
  5
36A4
330
3A7C
100
AcDbEntity
  8
Anlasern
100
AcDbLine
 10
440.8800000000002
 20
9.962832262208215
 30
0.0
 11
440.8800000000002
 21
30.217644114999
 31
0.0
  0
LINE
  5
36A6
330
3A7C
100
AcDbEntity
  8
Anlasern
100
AcDbLine
 10
451.3800000000002
 20
9.962832262208215
 30
0.0
 11
451.3800000000002
 21
30.217644114999
 31
0.0
  0
LINE
  5
36A7
330
3A7C
100
AcDbEntity
  8
Anlasern
100
AcDbLine
 10
461.8800000000002
 20
9.962832262208215
 30
0.0
 11
461.8800000000002
 21
30.217644114999
 31
0.0
  0
LINE
  5
36A8
330
3A7C
100
AcDbEntity
  8
Anlasern
100
AcDbLine
 10
472.3800000000002
 20
9.962832262208215
 30
0.0
 11
472.3800000000002
 21
30.217644114999
 31
0.0
  0
LINE
  5
36A9
330
3A7C
100
AcDbEntity
  8
Anlasern
100
AcDbLine
 10
482.8800000000002
 20
9.962832262208215
 30
0.0
 11
482.8800000000002
 21
30.217644114999
 31
0.0
  0
LINE
  5
36AA
330
3A7C
100
AcDbEntity
  8
Anlasern
100
AcDbLine
 10
169.0828322622082
 20
30.21764411499898
 30
0.0
 11
169.0828322622082
 21
9.962832262208195
 31
0.0
  0
LINE
  5
36AB
330
3A7C
100
AcDbEntity
  8
Anlasern
100
AcDbLine
 10
158.5828322622082
 20
30.21764411499898
 30
0.0
 11
158.5828322622082
 21
9.962832262208197
 31
0.0
  0
LINE
  5
36AC
330
3A7C
100
AcDbEntity
  8
Anlasern
100
AcDbLine
 10
148.0828322622082
 20
30.21764411499898
 30
0.0
 11
148.0828322622082
 21
9.962832262208199
 31
0.0
  0
LINE
  5
36AD
330
3A7C
100
AcDbEntity
  8
Anlasern
100
AcDbLine
 10
137.5828322622082
 20
30.21764411499898
 30
0.0
 11
137.5828322622082
 21
9.9628322622082
 31
0.0
  0
LINE
  5
36AE
330
3A7C
100
AcDbEntity
  8
Anlasern
100
AcDbLine
 10
127.0828322622082
 20
30.21764411499898
 30
0.0
 11
127.0828322622082
 21
9.962832262208202
 31
0.0
  0
LINE
  5
36AF
330
3A7C
100
AcDbEntity
  8
Anlasern
100
AcDbLine
 10
116.5828322622082
 20
30.21764411499898
 30
0.0
 11
116.5828322622082
 21
9.962832262208204
 31
0.0
  0
LINE
  5
36B0
330
3A7C
100
AcDbEntity
  8
Anlasern
100
AcDbLine
 10
493.3800000000002
 20
9.962832262208215
 30
0.0
 11
493.3800000000002
 21
30.217644114999
 31
0.0
  0
CIRCLE
  5
38E5
330
3A7C
100
AcDbEntity
  8
Boden
100
AcDbCircle
 10
403.2131911524201
 20
76.34887024660756
 30
0.0
 40
8.2
  0
CIRCLE
  5
38E6
330
3A7C
100
AcDbEntity
  8
WR Halter
100
AcDbCircle
 10
383.2131911524204
 20
936.1311208392735
 30
0.0
 40
8.2
  0
LINE
  5
38EC
330
3A7C
100
AcDbEntity
  8
WR Halter
100
AcDbLine
 10
375.8133991258904
 20
642.302146430959
 30
0.0
 11
384.0914673893459
 21
642.302146430959
 31
0.0
  0
LINE
  5
38ED
330
3A7C
100
AcDbEntity
  8
WR Halter
100
AcDbLine
 10
384.0914673893459
 20
642.302146430959
 30
0.0
 11
384.0914673893459
 21
650.5802146944145
 31
0.0
  0
LINE
  5
38EE
330
3A7C
100
AcDbEntity
  8
WR Halter
100
AcDbLine
 10
384.0914673893459
 20
650.5802146944145
 30
0.0
 11
375.8133991258904
 21
650.5802146944145
 31
0.0
  0
LINE
  5
38EF
330
3A7C
100
AcDbEntity
  8
WR Halter
100
AcDbLine
 10
375.8133991258904
 20
650.5802146944145
 30
0.0
 11
375.8133991258904
 21
642.302146430959
 31
0.0
  0
LINE
  5
38F0
330
3A7C
100
AcDbEntity
  8
WR Halter
100
AcDbLine
 10
225.825748237167
 20
642.2735966009352
 30
0.0
 11
234.0507519604721
 21
642.2735966009352
 31
0.0
  0
LINE
  5
38F1
330
3A7C
100
AcDbEntity
  8
WR Halter
100
AcDbLine
 10
234.0507519604721
 20
642.2735966009352
 30
0.0
 11
234.0507519604721
 21
650.5781971344659
 31
0.0
  0
LINE
  5
38F2
330
3A7C
100
AcDbEntity
  8
WR Halter
100
AcDbLine
 10
234.0507519604721
 20
650.5781971344659
 30
0.0
 11
225.825748237167
 21
650.5781971344659
 31
0.0
  0
LINE
  5
38F3
330
3A7C
100
AcDbEntity
  8
WR Halter
100
AcDbLine
 10
225.825748237167
 20
650.5781971344659
 30
0.0
 11
225.825748237167
 21
642.2735966009352
 31
0.0
  0
CIRCLE
  5
39A6
330
3A7C
100
AcDbEntity
  8
WR Halter
100
AcDbCircle
 10
403.2131911524204
 20
960.5052445729516
 30
0.0
 40
6.2
  0
CIRCLE
  5
39A7
330
3A7C
100
AcDbEntity
  8
WR Halter
100
AcDbCircle
 10
301.2726720178886
 20
961.3988164511277
 30
0.0
 40
4.0
  0
LINE
  5
39A9
330
3A7C
100
AcDbEntity
  8
WR Halter
100
AcDbLine
 10
184.9814161311043
 20
702.5
 30
0.0
 11
184.9814161311044
 21
902.4999999999999
 31
0.0
  0
LINE
  5
39AA
330
3A7C
100
AcDbEntity
  8
WR Halter
100
AcDbLine
 10
424.9814161311044
 20
902.4999999999997
 30
0.0
 11
424.9814161311044
 21
702.5000000000001
 31
0.0
  0
ENDSEC
  0
SECTION
  2
OBJECTS
  0
DICTIONARY
  5
3A6A
330
0
100
AcDbDictionary
281
     1
  3
ACAD_DETAILVIEWSTYLE
350
3B44
  3
ACAD_GROUP
350
3A6B
  3
ACAD_LAYOUT
350
3A77
  3
ACAD_MATERIAL
350
3AA0
  3
ACAD_MLEADERSTYLE
350
3B43
  3
ACAD_MLINESTYLE
350
3A74
  3
ACAD_PLOTSETTINGS
350
3A76
  3
ACAD_PLOTSTYLENAME
350
3A6C
  3
ACAD_SCALELIST
350
3AA4
  3
ACAD_SECTIONVIEWSTYLE
350
3B45
  3
ACAD_TABLESTYLE
350
3B42
  3
ACAD_VISUALSTYLE
350
3A87
  3
AcDbVariableDictionary
350
3B10
  3
QCAD_OBJECTS
350
3AC8
  0
SUN
  5
3AC6
330
3A86
100
AcDbSun
 90
        1
290
     0
 63
     7
421
 16777215
 40
1.0
291
     1
 91
  2455826
 92
 54000000
292
     0
 70
     2
 71
   256
280
     1
  0
DICTIONARY
  5
3B44
102
{ACAD_REACTORS
330
3A6A
102
}
330
3A6A
100
AcDbDictionary
281
     1
  0
DICTIONARY
  5
3A6B
102
{ACAD_REACTORS
330
3A6A
102
}
330
3A6A
100
AcDbDictionary
281
     1
  0
DICTIONARY
  5
3A77
102
{ACAD_REACTORS
330
3A6A
102
}
330
3A6A
100
AcDbDictionary
281
     1
  3
Layout1
350
3A7B
  3
Layout2
350
3A83
  3
Model
350
3A7F
  0
DICTIONARY
  5
3AA0
102
{ACAD_REACTORS
330
3A6A
102
}
330
3A6A
100
AcDbDictionary
281
     1
  3
ByBlock
350
3AA2
  3
ByLayer
350
3AA1
  3
Global
350
3AA3
  0
DICTIONARY
  5
3B43
102
{ACAD_REACTORS
330
3A6A
102
}
330
3A6A
100
AcDbDictionary
281
     1
  0
DICTIONARY
  5
3A74
102
{ACAD_REACTORS
330
3A6A
102
}
330
3A6A
100
AcDbDictionary
281
     1
  3
Standard
350
3A75
  0
DICTIONARY
  5
3A76
102
{ACAD_REACTORS
330
3A6A
102
}
330
3A6A
100
AcDbDictionary
281
     1
  0
ACDBDICTIONARYWDFLT
  5
3A6C
102
{ACAD_REACTORS
330
3A6A
102
}
330
3A6A
100
AcDbDictionary
281
     1
  3
Normal
350
3A6D
100
AcDbDictionaryWithDefault
340
3A6D
  0
DICTIONARY
  5
3AA4
102
{ACAD_REACTORS
330
3A6A
102
}
330
3A6A
100
AcDbDictionary
281
     1
  3
A0
350
3AA5
  3
A1
350
3AA6
  3
A2
350
3AA7
  3
A3
350
3AA8
  3
A4
350
3AA9
  3
A5
350
3AAA
  3
A6
350
3AAB
  3
A7
350
3AAC
  3
A8
350
3AAD
  3
A9
350
3AAE
  3
B0
350
3AAF
  3
B1
350
3AB0
  3
B2
350
3AB1
  3
B3
350
3AB2
  3
B4
350
3AB3
  3
B5
350
3AB4
  3
B6
350
3AB5
  3
B7
350
3AB6
  3
B8
350
3AB7
  3
B9
350
3AB8
  3
C0
350
3AB9
  3
C1
350
3ABA
  3
C2
350
3ABB
  3
C3
350
3ABC
  3
C4
350
3ABD
  3
C5
350
3ABE
  3
C6
350
3ABF
  3
C7
350
3AC0
  3
C8
350
3AC1
  3
C9
350
3AC2
  3
D0
350
3AC3
  3
D1
350
3AC4
  3
D2
350
3AC5
  0
DICTIONARY
  5
3B45
102
{ACAD_REACTORS
330
3A6A
102
}
330
3A6A
100
AcDbDictionary
281
     1
  0
DICTIONARY
  5
3B42
102
{ACAD_REACTORS
330
3A6A
102
}
330
3A6A
100
AcDbDictionary
281
     1
  0
DICTIONARY
  5
3A87
102
{ACAD_REACTORS
330
3A6A
102
}
330
3A6A
100
AcDbDictionary
281
     1
  3
2dWireframe
350
3A8C
  3
Basic
350
3A8F
  3
Brighten
350
3A93
  3
ColorChange
350
3A97
  3
Conceptual
350
3A91
  3
Dim
350
3A92
  3
EdgeColorOff
350
3A9A
  3
Facepattern
350
3A96
  3
Flat
350
3A88
  3
FlatWithEdges
350
3A89
  3
Gouraud
350
3A8A
  3
GouraudWithEdges
350
3A8B
  3
Hidden
350
3A8E
  3
JitterOff
350
3A98
  3
Linepattern
350
3A95
  3
OverhangOff
350
3A99
  3
Realistic
350
3A90
  3
Shaded
350
3A9F
  3
Shaded with edges
350
3A9E
  3
Shades of Gray
350
3A9B
  3
Sketchy
350
3A9C
  3
Thicken
350
3A94
  3
Wireframe
350
3A8D
  3
X-Ray
350
3A9D
  0
DICTIONARY
  5
3B10
102
{ACAD_REACTORS
330
3A6A
102
}
330
3A6A
100
AcDbDictionary
281
     1
  3
CANNOSCALE
350
3B11
  0
DICTIONARY
  5
3AC8
102
{ACAD_REACTORS
330
3A6A
102
}
330
3A6A
100
AcDbDictionary
281
     1
  3
Grid/DisplayGrid00
350
3AC9
  3
Grid/DisplayGrid01
350
3ACA
  3
Grid/DisplayGrid02
350
3ACB
  3
Grid/DisplayGrid03
350
3ACC
  3
Grid/GridSpacingX00
350
3ACD
  3
Grid/GridSpacingX01
350
3ACE
  3
Grid/GridSpacingX02
350
3ACF
  3
Grid/GridSpacingX03
350
3AD0
  3
Grid/GridSpacingY00
350
3AD1
  3
Grid/GridSpacingY01
350
3AD2
  3
Grid/GridSpacingY02
350
3AD3
  3
Grid/GridSpacingY03
350
3AD4
  3
Grid/IsometricGrid00
350
3AD5
  3
Grid/IsometricGrid01
350
3AD6
  3
Grid/IsometricGrid02
350
3AD7
  3
Grid/IsometricGrid03
350
3AD8
  3
Grid/IsometricProjection00
350
3AD9
  3
Grid/IsometricProjection01
350
3ADA
  3
Grid/IsometricProjection02
350
3ADB
  3
Grid/IsometricProjection03
350
3ADC
  3
Grid/MetaGridSpacingX00
350
3ADD
  3
Grid/MetaGridSpacingX01
350
3ADE
  3
Grid/MetaGridSpacingX02
350
3ADF
  3
Grid/MetaGridSpacingX03
350
3AE0
  3
Grid/MetaGridSpacingY00
350
3AE1
  3
Grid/MetaGridSpacingY01
350
3AE2
  3
Grid/MetaGridSpacingY02
350
3AE3
  3
Grid/MetaGridSpacingY03
350
3AE4
  3
MultiPageSettings/Columns
350
3AE5
  3
MultiPageSettings/GlueMarginsBottom
350
3AE6
  3
MultiPageSettings/GlueMarginsLeft
350
3AE7
  3
MultiPageSettings/GlueMarginsRight
350
3AE8
  3
MultiPageSettings/GlueMarginsTop
350
3AE9
  3
MultiPageSettings/PrintCropMarks
350
3AEA
  3
MultiPageSettings/Rows
350
3AEB
  3
PageSettings/OffsetX
350
3AEC
  3
PageSettings/OffsetY
350
3AED
  3
PageSettings/PageOrientation
350
3AEE
  3
PageSettings/PaperHeight
350
3AEF
  3
PageSettings/PaperWidth
350
3AF0
  3
PageSettings/Scale
350
3AF1
  3
PageSettings/ShowPaperBorders
350
3AF2
  3
UnitSettings/PaperUnit
350
3AF3
  0
LAYOUT
  5
3A7B
102
{ACAD_REACTORS
330
3A77
102
}
330
3A77
100
AcDbPlotSettings
  1

  2
none_device
  4

  6

 40
0.0
 41
0.0
 42
0.0
 43
0.0
 44
0.0
 45
0.0
 46
0.0
 47
0.0
 48
0.0
 49
0.0
140
0.0
141
0.0
142
1.0
143
1.0
 70
   688
 72
     0
 73
     0
 74
     5
  7

 75
    16
 76
     0
 77
     2
 78
   300
147
1.0
148
0.0
149
0.0
100
AcDbLayout
  1
Layout1
 70
     1
 71
     1
 10
0.0
 20
0.0
 11
210.0
 21
297.0
 12
46.0967811711902
 22
115.8586510163682
 32
0.0
 14
1.000000000000000E+20
 24
1.000000000000000E+20
 34
1.000000000000000E+20
 15
-1.000000000000000E+20
 25
-1.000000000000000E+20
 35
-1.000000000000000E+20
146
0.0
 13
0.0
 23
0.0
 33
0.0
 16
1.0
 26
0.0
 36
0.0
 17
0.0
 27
1.0
 37
0.0
 76
     0
330
3A78
  0
LAYOUT
  5
3A83
102
{ACAD_REACTORS
330
3A77
102
}
330
3A77
100
AcDbPlotSettings
  1

  2
none_device
  4

  6

 40
0.0
 41
0.0
 42
0.0
 43
0.0
 44
0.0
 45
0.0
 46
0.0
 47
0.0
 48
0.0
 49
0.0
140
0.0
141
0.0
142
1.0
143
1.0
 70
   688
 72
     0
 73
     0
 74
     5
  7

 75
    16
 76
     0
 77
     2
 78
   300
147
1.0
148
0.0
149
0.0
100
AcDbLayout
  1
Layout2
 70
     1
 71
     2
 10
0.0
 20
0.0
 11
0.0
 21
0.0
 12
0.0
 22
0.0
 32
0.0
 14
0.0
 24
0.0
 34
0.0
 15
0.0
 25
0.0
 35
0.0
146
0.0
 13
0.0
 23
0.0
 33
0.0
 16
1.0
 26
0.0
 36
0.0
 17
0.0
 27
1.0
 37
0.0
 76
     0
330
3A80
  0
LAYOUT
  5
3A7F
102
{ACAD_REACTORS
330
3A77
102
}
330
3A77
100
AcDbPlotSettings
  1

  2
none_device
  4
Letter_(8.50_x_11.00_Inches)
  6

 40
6.35
 41
6.35
 42
6.35000508
 43
6.35000508
 44
215.9
 45
279.4
 46
0.0
 47
0.0
 48
0.0
 49
0.0
140
0.0
141
0.0
142
1.0
143
1.0
 70
  1712
 72
     0
 73
     0
 74
     0
  7

 75
     0
 76
     0
 77
     2
 78
   300
147
1.0
148
0.0
149
0.0
100
AcDbLayout
  1
Model
 70
     1
 71
     0
 10
0.0
 20
0.0
 11
12.0
 21
9.0
 12
0.0
 22
0.0
 32
0.0
 14
1.000000000000000E+20
 24
1.000000000000000E+20
 34
1.000000000000000E+20
 15
-1.000000000000000E+20
 25
-1.000000000000000E+20
 35
-1.000000000000000E+20
146
0.0
 13
0.0
 23
0.0
 33
0.0
 16
1.0
 26
0.0
 36
0.0
 17
0.0
 27
1.0
 37
0.0
 76
     0
330
3A7C
331
3A86
  0
MATERIAL
  5
3AA2
102
{ACAD_REACTORS
330
3AA0
102
}
330
3AA0
100
AcDbMaterial
  1
ByBlock
 72
     1
 94
      127
  0
MATERIAL
  5
3AA1
102
{ACAD_REACTORS
330
3AA0
102
}
330
3AA0
100
AcDbMaterial
  1
ByLayer
 72
     1
 94
      127
  0
MATERIAL
  5
3AA3
102
{ACAD_REACTORS
330
3AA0
102
}
330
3AA0
100
AcDbMaterial
  1
Global
 72
     1
 94
      127
  0
MLINESTYLE
  5
3A75
102
{ACAD_REACTORS
330
3A74
102
}
330
3A74
100
AcDbMlineStyle
  2
Standard
 70
     0
  3

 62
   256
 51
90.0
 52
90.0
 71
     2
 49
0.5
 62
   256
  6
BYLAYER
 49
-0.5
 62
   256
  6
BYLAYER
  0
ACDBPLACEHOLDER
  5
3A6D
102
{ACAD_REACTORS
330
3A6C
102
}
330
3A6C
  0
SCALE
  5
3AA5
102
{ACAD_REACTORS
330
3AA4
102
}
330
3AA4
100
AcDbScale
 70
     0
300
1:1
140
1.0
141
1.0
290
     1
  0
SCALE
  5
3AA6
102
{ACAD_REACTORS
330
3AA4
102
}
330
3AA4
100
AcDbScale
 70
     0
300
1:2
140
1.0
141
2.0
290
     0
  0
SCALE
  5
3AA7
102
{ACAD_REACTORS
330
3AA4
102
}
330
3AA4
100
AcDbScale
 70
     0
300
1:4
140
1.0
141
4.0
290
     0
  0
SCALE
  5
3AA8
102
{ACAD_REACTORS
330
3AA4
102
}
330
3AA4
100
AcDbScale
 70
     0
300
1:5
140
1.0
141
5.0
290
     0
  0
SCALE
  5
3AA9
102
{ACAD_REACTORS
330
3AA4
102
}
330
3AA4
100
AcDbScale
 70
     0
300
1:8
140
1.0
141
8.0
290
     0
  0
SCALE
  5
3AAA
102
{ACAD_REACTORS
330
3AA4
102
}
330
3AA4
100
AcDbScale
 70
     0
300
1:10
140
1.0
141
10.0
290
     0
  0
SCALE
  5
3AAB
102
{ACAD_REACTORS
330
3AA4
102
}
330
3AA4
100
AcDbScale
 70
     0
300
1:16
140
1.0
141
16.0
290
     0
  0
SCALE
  5
3AAC
102
{ACAD_REACTORS
330
3AA4
102
}
330
3AA4
100
AcDbScale
 70
     0
300
1:20
140
1.0
141
20.0
290
     0
  0
SCALE
  5
3AAD
102
{ACAD_REACTORS
330
3AA4
102
}
330
3AA4
100
AcDbScale
 70
     0
300
1:30
140
1.0
141
30.0
290
     0
  0
SCALE
  5
3AAE
102
{ACAD_REACTORS
330
3AA4
102
}
330
3AA4
100
AcDbScale
 70
     0
300
1:40
140
1.0
141
40.0
290
     0
  0
SCALE
  5
3AAF
102
{ACAD_REACTORS
330
3AA4
102
}
330
3AA4
100
AcDbScale
 70
     0
300
1:50
140
1.0
141
50.0
290
     0
  0
SCALE
  5
3AB0
102
{ACAD_REACTORS
330
3AA4
102
}
330
3AA4
100
AcDbScale
 70
     0
300
1:100
140
1.0
141
100.0
290
     0
  0
SCALE
  5
3AB1
102
{ACAD_REACTORS
330
3AA4
102
}
330
3AA4
100
AcDbScale
 70
     0
300
2:1
140
2.0
141
1.0
290
     0
  0
SCALE
  5
3AB2
102
{ACAD_REACTORS
330
3AA4
102
}
330
3AA4
100
AcDbScale
 70
     0
300
4:1
140
4.0
141
1.0
290
     0
  0
SCALE
  5
3AB3
102
{ACAD_REACTORS
330
3AA4
102
}
330
3AA4
100
AcDbScale
 70
     0
300
8:1
140
8.0
141
1.0
290
     0
  0
SCALE
  5
3AB4
102
{ACAD_REACTORS
330
3AA4
102
}
330
3AA4
100
AcDbScale
 70
     0
300
10:1
140
10.0
141
1.0
290
     0
  0
SCALE
  5
3AB5
102
{ACAD_REACTORS
330
3AA4
102
}
330
3AA4
100
AcDbScale
 70
     0
300
100:1
140
100.0
141
1.0
290
     0
  0
SCALE
  5
3AB6
102
{ACAD_REACTORS
330
3AA4
102
}
330
3AA4
100
AcDbScale
 70
     0
300
1/128" = 1'-0"
140
0.0078125
141
12.0
290
     0
  0
SCALE
  5
3AB7
102
{ACAD_REACTORS
330
3AA4
102
}
330
3AA4
100
AcDbScale
 70
     0
300
1/64" = 1'-0"
140
0.015625
141
12.0
290
     0
  0
SCALE
  5
3AB8
102
{ACAD_REACTORS
330
3AA4
102
}
330
3AA4
100
AcDbScale
 70
     0
300
1/32" = 1'-0"
140
0.03125
141
12.0
290
     0
  0
SCALE
  5
3AB9
102
{ACAD_REACTORS
330
3AA4
102
}
330
3AA4
100
AcDbScale
 70
     0
300
1/16" = 1'-0"
140
0.0625
141
12.0
290
     0
  0
SCALE
  5
3ABA
102
{ACAD_REACTORS
330
3AA4
102
}
330
3AA4
100
AcDbScale
 70
     0
300
3/32" = 1'-0"
140
0.09375
141
12.0
290
     0
  0
SCALE
  5
3ABB
102
{ACAD_REACTORS
330
3AA4
102
}
330
3AA4
100
AcDbScale
 70
     0
300
1/8" = 1'-0"
140
0.125
141
12.0
290
     0
  0
SCALE
  5
3ABC
102
{ACAD_REACTORS
330
3AA4
102
}
330
3AA4
100
AcDbScale
 70
     0
300
3/16" = 1'-0"
140
0.1875
141
12.0
290
     0
  0
SCALE
  5
3ABD
102
{ACAD_REACTORS
330
3AA4
102
}
330
3AA4
100
AcDbScale
 70
     0
300
1/4" = 1'-0"
140
0.25
141
12.0
290
     0
  0
SCALE
  5
3ABE
102
{ACAD_REACTORS
330
3AA4
102
}
330
3AA4
100
AcDbScale
 70
     0
300
3/8" = 1'-0"
140
0.375
141
12.0
290
     0
  0
SCALE
  5
3ABF
102
{ACAD_REACTORS
330
3AA4
102
}
330
3AA4
100
AcDbScale
 70
     0
300
1/2" = 1'-0"
140
0.5
141
12.0
290
     0
  0
SCALE
  5
3AC0
102
{ACAD_REACTORS
330
3AA4
102
}
330
3AA4
100
AcDbScale
 70
     0
300
3/4" = 1'-0"
140
0.75
141
12.0
290
     0
  0
SCALE
  5
3AC1
102
{ACAD_REACTORS
330
3AA4
102
}
330
3AA4
100
AcDbScale
 70
     0
300
1" = 1'-0"
140
1.0
141
12.0
290
     0
  0
SCALE
  5
3AC2
102
{ACAD_REACTORS
330
3AA4
102
}
330
3AA4
100
AcDbScale
 70
     0
300
1-1/2" = 1'-0"
140
1.5
141
12.0
290
     0
  0
SCALE
  5
3AC3
102
{ACAD_REACTORS
330
3AA4
102
}
330
3AA4
100
AcDbScale
 70
     0
300
3" = 1'-0"
140
3.0
141
12.0
290
     0
  0
SCALE
  5
3AC4
102
{ACAD_REACTORS
330
3AA4
102
}
330
3AA4
100
AcDbScale
 70
     0
300
6" = 1'-0"
140
6.0
141
12.0
290
     0
  0
SCALE
  5
3AC5
102
{ACAD_REACTORS
330
3AA4
102
}
330
3AA4
100
AcDbScale
 70
     0
300
1'-0" = 1'-0"
140
12.0
141
12.0
290
     0
  0
VISUALSTYLE
  5
3A8C
102
{ACAD_REACTORS
330
3A87
102
}
102
{ACAD_XDICTIONARY
360
3B1A
102
}
330
3A87
100
AcDbVisualStyle
  2
2dWireframe
 70
     4
 71
     0
 72
     2
 73
     0
 90
        0
 40
0.6
 41
30.0
 62
     5
 63
     7
421
 16777215
 74
     1
 91
        4
 64
     7
 65
   257
 75
     1
175
     1
 42
1.0
 92
        0
 66
   257
 43
1.0
 76
     1
 77
     6
 78
     2
 67
     7
 79
     5
170
     0
171
     0
290
     0
174
     0
 93
        1
 44
0.0
173
     0
291
     0
 45
0.0
  0
VISUALSTYLE
  5
3A8F
102
{ACAD_REACTORS
330
3A87
102
}
102
{ACAD_XDICTIONARY
360
3B20
102
}
330
3A87
100
AcDbVisualStyle
  2
Basic
 70
     7
 71
     1
 72
     0
 73
     1
 90
        0
 40
0.6
 41
30.0
 62
     5
 63
     7
421
 16777215
 74
     0
 91
        4
 64
     7
 65
   257
 75
     1
175
     1
 42
1.0
 92
        8
 66
     7
 43
1.0
 76
     1
 77
     6
 78
     2
 67
     7
 79
     5
170
     0
171
     0
290
     0
174
     0
 93
        1
 44
0.0
173
     0
291
     1
 45
0.0
  0
VISUALSTYLE
  5
3A93
102
{ACAD_REACTORS
330
3A87
102
}
102
{ACAD_XDICTIONARY
360
3B28
102
}
330
3A87
100
AcDbVisualStyle
  2
Brighten
 70
    12
 71
     2
 72
     2
 73
     0
 90
        0
 40
0.6
 41
30.0
 62
     5
 63
     7
421
 16777215
 74
     1
 91
        4
 64
     7
 65
   257
 75
     1
175
     1
 42
1.0
 92
        8
 66
     7
 43
1.0
 76
     1
 77
     6
 78
     2
 67
     7
 79
     5
170
     0
171
     0
290
     0
174
     0
 93
        1
 44
50.0
173
     0
291
     1
 45
0.0
  0
VISUALSTYLE
  5
3A97
102
{ACAD_REACTORS
330
3A87
102
}
102
{ACAD_XDICTIONARY
360
3B30
102
}
330
3A87
100
AcDbVisualStyle
  2
ColorChange
 70
    16
 71
     2
 72
     2
 73
     3
 90
        0
 40
0.6
 41
30.0
 62
     5
 63
     8
421
  8421504
 74
     1
 91
        4
 64
     7
 65
   257
 75
     1
175
     1
 42
1.0
 92
        8
 66
     8
424
  8421504
 43
1.0
 76
     1
 77
     6
 78
     2
 67
     7
 79
     5
170
     0
171
     0
290
     0
174
     0
 93
        1
 44
0.0
173
     0
291
     1
 45
0.0
  0
VISUALSTYLE
  5
3A91
102
{ACAD_REACTORS
330
3A87
102
}
102
{ACAD_XDICTIONARY
360
3B24
102
}
330
3A87
100
AcDbVisualStyle
  2
Conceptual
 70
     9
 71
     3
 72
     2
 73
     0
 90
        0
 40
0.6
 41
30.0
 62
     5
 63
     7
421
 16777215
 74
     2
 91
        2
 64
     7
 65
   257
 75
     1
175
     1
 42
179.0
 92
        8
 66
     7
 43
1.0
 76
     1
 77
     6
 78
     2
 67
     7
 79
     3
170
     0
171
     0
290
     0
174
     0
 93
        1
 44
0.0
173
     0
291
     0
 45
0.0
  0
VISUALSTYLE
  5
3A92
102
{ACAD_REACTORS
330
3A87
102
}
102
{ACAD_XDICTIONARY
360
3B26
102
}
330
3A87
100
AcDbVisualStyle
  2
Dim
 70
    11
 71
     2
 72
     2
 73
     0
 90
        0
 40
0.6
 41
30.0
 62
     5
 63
     7
421
 16777215
 74
     1
 91
        4
 64
     7
 65
   257
 75
     1
175
     1
 42
1.0
 92
        8
 66
     7
 43
1.0
 76
     1
 77
     6
 78
     2
 67
     7
 79
     5
170
     0
171
     0
290
     0
174
     0
 93
        1
 44
-50.0
173
     0
291
     1
 45
0.0
  0
VISUALSTYLE
  5
3A9A
102
{ACAD_REACTORS
330
3A87
102
}
102
{ACAD_XDICTIONARY
360
3B36
102
}
330
3A87
100
AcDbVisualStyle
  2
EdgeColorOff
 70
    22
 71
     2
 72
     2
 73
     0
 90
        0
 40
0.6
 41
30.0
 62
     5
 63
     7
421
 16777215
 74
     1
 91
        4
 64
     7
 65
   257
 75
     1
175
     1
 42
1.0
 92
        8
 66
     7
 43
1.0
 76
     1
 77
     6
 78
     2
 67
     7
 79
     5
170
     0
171
     0
290
     0
174
     0
 93
        1
 44
0.0
173
     0
291
     1
 45
0.0
  0
VISUALSTYLE
  5
3A96
102
{ACAD_REACTORS
330
3A87
102
}
102
{ACAD_XDICTIONARY
360
3B2E
102
}
330
3A87
100
AcDbVisualStyle
  2
Facepattern
 70
    15
 71
     2
 72
     2
 73
     0
 90
        0
 40
0.6
 41
30.0
 62
     5
 63
     7
421
 16777215
 74
     1
 91
        4
 64
     7
 65
   257
 75
     1
175
     1
 42
1.0
 92
        8
 66
     7
 43
1.0
 76
     1
 77
     6
 78
     2
 67
     7
 79
     5
170
     0
171
     0
290
     0
174
     0
 93
        1
 44
0.0
173
     0
291
     1
 45
0.0
  0
VISUALSTYLE
  5
3A88
102
{ACAD_REACTORS
330
3A87
102
}
102
{ACAD_XDICTIONARY
360
3B12
102
}
330
3A87
100
AcDbVisualStyle
  2
Flat
 70
     0
 71
     2
 72
     1
 73
     1
 90
        2
 40
0.6
 41
30.0
 62
     5
 63
     7
421
 16777215
 74
     0
 91
        0
 64
     7
 65
   257
 75
     1
175
     1
 42
1.0
 92
        8
 66
     7
 43
1.0
 76
     1
 77
     6
 78
     2
 67
     7
 79
     5
170
     0
171
     0
290
     0
174
     0
 93
       13
 44
0.0
173
     0
291
     1
 45
0.0
  0
VISUALSTYLE
  5
3A89
102
{ACAD_REACTORS
330
3A87
102
}
102
{ACAD_XDICTIONARY
360
3B14
102
}
330
3A87
100
AcDbVisualStyle
  2
FlatWithEdges
 70
     1
 71
     2
 72
     1
 73
     1
 90
        2
 40
0.6
 41
30.0
 62
     5
 63
     7
421
 16777215
 74
     1
 91
        0
 64
     7
 65
   257
 75
     1
175
     1
 42
1.0
 92
        0
 66
   257
 43
1.0
 76
     1
 77
     6
 78
     2
 67
     7
 79
     5
170
     0
171
     0
290
     0
174
     0
 93
       13
 44
0.0
173
     0
291
     1
 45
0.0
  0
VISUALSTYLE
  5
3A8A
102
{ACAD_REACTORS
330
3A87
102
}
102
{ACAD_XDICTIONARY
360
3B16
102
}
330
3A87
100
AcDbVisualStyle
  2
Gouraud
 70
     2
 71
     2
 72
     2
 73
     1
 90
        2
 40
0.6
 41
30.0
 62
     5
 63
     7
421
 16777215
 74
     0
 91
        0
 64
     7
 65
   257
 75
     1
175
     1
 42
1.0
 92
        0
 66
     7
 43
1.0
 76
     1
 77
     6
 78
     2
 67
     7
 79
     5
170
     0
171
     0
290
     0
174
     0
 93
       13
 44
0.0
173
     0
291
     1
 45
0.0
  0
VISUALSTYLE
  5
3A8B
102
{ACAD_REACTORS
330
3A87
102
}
102
{ACAD_XDICTIONARY
360
3B18
102
}
330
3A87
100
AcDbVisualStyle
  2
GouraudWithEdges
 70
     3
 71
     2
 72
     2
 73
     1
 90
        2
 40
0.6
 41
30.0
 62
     5
 63
     7
421
 16777215
 74
     1
 91
        0
 64
     7
 65
   257
 75
     1
175
     1
 42
1.0
 92
        0
 66
   257
 43
1.0
 76
     1
 77
     6
 78
     2
 67
     7
 79
     5
170
     0
171
     0
290
     0
174
     0
 93
       13
 44
0.0
173
     0
291
     1
 45
0.0
  0
VISUALSTYLE
  5
3A8E
102
{ACAD_REACTORS
330
3A87
102
}
102
{ACAD_XDICTIONARY
360
3B1E
102
}
330
3A87
100
AcDbVisualStyle
  2
Hidden
 70
     6
 71
     1
 72
     2
 73
     2
 90
        0
 40
0.6
 41
30.0
 62
     5
 63
     7
421
 16777215
 74
     2
 91
        2
 64
     7
 65
   257
 75
     2
175
     1
 42
40.0
 92
        0
 66
   257
 43
1.0
 76
     1
 77
     6
 78
     2
 67
     7
 79
     3
170
     0
171
     0
290
     0
174
     0
 93
        1
 44
0.0
173
     0
291
     0
 45
0.0
  0
VISUALSTYLE
  5
3A98
102
{ACAD_REACTORS
330
3A87
102
}
102
{ACAD_XDICTIONARY
360
3B32
102
}
330
3A87
100
AcDbVisualStyle
  2
JitterOff
 70
    20
 71
     2
 72
     2
 73
     0
 90
        0
 40
0.6
 41
30.0
 62
     5
 63
     7
421
 16777215
 74
     1
 91
        4
 64
     7
 65
   257
 75
     1
175
     1
 42
1.0
 92
       10
 66
     7
 43
1.0
 76
     1
 77
     6
 78
     2
 67
     7
 79
     5
170
     0
171
     0
290
     0
174
     0
 93
        1
 44
0.0
173
     0
291
     1
 45
0.0
  0
VISUALSTYLE
  5
3A95
102
{ACAD_REACTORS
330
3A87
102
}
102
{ACAD_XDICTIONARY
360
3B2C
102
}
330
3A87
100
AcDbVisualStyle
  2
Linepattern
 70
    14
 71
     2
 72
     2
 73
     0
 90
        0
 40
0.6
 41
30.0
 62
     5
 63
     7
421
 16777215
 74
     1
 91
        4
 64
     7
 65
   257
 75
     7
175
     7
 42
1.0
 92
        8
 66
     7
 43
1.0
 76
     1
 77
     6
 78
     2
 67
     7
 79
     5
170
     0
171
     0
290
     0
174
     0
 93
        1
 44
0.0
173
     0
291
     1
 45
0.0
  0
VISUALSTYLE
  5
3A99
102
{ACAD_REACTORS
330
3A87
102
}
102
{ACAD_XDICTIONARY
360
3B34
102
}
330
3A87
100
AcDbVisualStyle
  2
OverhangOff
 70
    21
 71
     2
 72
     2
 73
     0
 90
        0
 40
0.6
 41
30.0
 62
     5
 63
     7
421
 16777215
 74
     1
 91
        4
 64
     7
 65
   257
 75
     1
175
     1
 42
1.0
 92
        9
 66
     7
 43
1.0
 76
     1
 77
     6
 78
     2
 67
     7
 79
     5
170
     0
171
     0
290
     0
174
     0
 93
        1
 44
0.0
173
     0
291
     1
 45
0.0
  0
VISUALSTYLE
  5
3A90
102
{ACAD_REACTORS
330
3A87
102
}
102
{ACAD_XDICTIONARY
360
3B22
102
}
330
3A87
100
AcDbVisualStyle
  2
Realistic
 70
     8
 71
     2
 72
     3
 73
     0
 90
        2
 40
0.6
 41
30.0
 62
     5
 63
     7
421
 16777215
 74
     0
 91
        0
 64
     7
 65
   257
 75
     1
175
     1
 42
1.0
 92
        8
 66
   257
 43
1.0
 76
     1
 77
     6
 78
     2
 67
     7
 79
     3
170
     0
171
     0
290
     0
174
     0
 93
       13
 44
0.0
173
     0
291
     0
 45
0.0
  0
VISUALSTYLE
  5
3A9F
102
{ACAD_REACTORS
330
3A87
102
}
102
{ACAD_XDICTIONARY
360
3B40
102
}
330
3A87
100
AcDbVisualStyle
  2
Shaded
 70
    27
 71
     2
 72
     2
 73
     1
 90
        2
 40
0.6
 41
30.0
 62
     5
 63
     7
421
 16777215
 74
     0
 91
        4
 64
     7
 65
   257
 75
     1
175
     1
 42
1.0
 92
        8
 66
   257
 43
1.0
 76
     1
 77
     6
 78
     2
 67
     8
425
  7895160
 79
     3
170
     0
171
     0
290
     0
174
     0
 93
        5
 44
0.0
173
     0
291
     0
 45
0.0
  0
VISUALSTYLE
  5
3A9E
102
{ACAD_REACTORS
330
3A87
102
}
102
{ACAD_XDICTIONARY
360
3B3E
102
}
330
3A87
100
AcDbVisualStyle
  2
Shaded with edges
 70
    26
 71
     2
 72
     2
 73
     1
 90
        2
 40
0.6
 41
30.0
 62
     5
 63
     7
421
 16777215
 74
     1
 91
       10
 64
     7
 65
   257
 75
     2
175
     1
 42
1.0
 92
        8
 66
   257
 43
1.0
 76
     1
 77
     6
 78
     2
 67
     7
 79
     3
170
     0
171
     0
290
     0
174
     0
 93
        5
 44
0.0
173
     0
291
     0
 45
0.0
  0
VISUALSTYLE
  5
3A9B
102
{ACAD_REACTORS
330
3A87
102
}
102
{ACAD_XDICTIONARY
360
3B38
102
}
330
3A87
100
AcDbVisualStyle
  2
Shades of Gray
 70
    23
 71
     2
 72
     2
 73
     3
 90
        0
 40
0.6
 41
30.0
 62
     5
 63
     7
421
 16777215
 74
     2
 91
        2
 64
     7
 65
     7
 75
     1
175
     1
 42
40.0
 92
        8
 66
     7
 43
1.0
 76
     1
 77
     6
 78
     2
 67
     7
 79
     3
170
     0
171
     0
290
     0
174
     0
 93
        1
 44
0.0
173
     0
291
     0
 45
0.0
  0
VISUALSTYLE
  5
3A9C
102
{ACAD_REACTORS
330
3A87
102
}
102
{ACAD_XDICTIONARY
360
3B3A
102
}
330
3A87
100
AcDbVisualStyle
  2
Sketchy
 70
    24
 71
     1
 72
     2
 73
     2
 90
        0
 40
0.6
 41
30.0
 62
     5
 63
     7
421
 16777215
 74
     2
 91
        2
 64
     7
 65
     7
 75
     1
175
     1
 42
40.0
 92
       11
 66
     7
 43
1.0
 76
     1
 77
     6
 78
     2
 67
     7
 79
     6
170
     0
171
     0
290
     0
174
     0
 93
        1
 44
0.0
173
     0
291
     0
 45
0.0
  0
VISUALSTYLE
  5
3A94
102
{ACAD_REACTORS
330
3A87
102
}
102
{ACAD_XDICTIONARY
360
3B2A
102
}
330
3A87
100
AcDbVisualStyle
  2
Thicken
 70
    13
 71
     2
 72
     2
 73
     0
 90
        0
 40
0.6
 41
30.0
 62
     5
 63
     7
421
 16777215
 74
     1
 91
        4
 64
     7
 65
   257
 75
     1
175
     1
 42
1.0
 92
       12
 66
     7
 43
1.0
 76
     1
 77
     6
 78
     2
 67
     7
 79
     5
170
     0
171
     0
290
     0
174
     0
 93
        1
 44
0.0
173
     0
291
     1
 45
0.0
  0
VISUALSTYLE
  5
3A8D
102
{ACAD_REACTORS
330
3A87
102
}
102
{ACAD_XDICTIONARY
360
3B1C
102
}
330
3A87
100
AcDbVisualStyle
  2
Wireframe
 70
     5
 71
     0
 72
     2
 73
     0
 90
        0
 40
0.6
 41
30.0
 62
     5
 63
     7
421
 16777215
 74
     1
 91
        4
 64
     7
 65
   257
 75
     1
175
     1
 42
1.0
 92
        0
 66
   257
 43
1.0
 76
     1
 77
     6
 78
     2
 67
     7
 79
     3
170
     0
171
     0
290
     0
174
     0
 93
        1
 44
0.0
173
     0
291
     0
 45
0.0
  0
VISUALSTYLE
  5
3A9D
102
{ACAD_REACTORS
330
3A87
102
}
102
{ACAD_XDICTIONARY
360
3B3C
102
}
330
3A87
100
AcDbVisualStyle
  2
X-Ray
 70
    25
 71
     2
 72
     2
 73
     1
 90
        1
 40
0.5
 41
30.0
 62
     5
 63
     7
421
 16777215
 74
     1
 91
        0
 64
     7
 65
   257
 75
     1
175
     1
 42
1.0
 92
        8
 66
     7
 43
1.0
 76
     1
 77
     6
 78
     2
 67
     7
 79
     3
170
     0
171
     0
290
     0
174
     0
 93
       13
 44
0.0
173
     0
291
     0
 45
0.0
  0
DICTIONARYVAR
  5
3B11
102
{ACAD_REACTORS
330
3B10
102
}
330
3B10
100
DictionaryVariables
280
     0
  1
1:1
  0
XRECORD
  5
3AC9
102
{ACAD_REACTORS
330
3AC8
102
}
330
3AC8
100
AcDbXrecord
280
     1
290
     1
  0
XRECORD
  5
3ACA
102
{ACAD_REACTORS
330
3AC8
102
}
330
3AC8
100
AcDbXrecord
280
     1
290
     1
  0
XRECORD
  5
3ACB
102
{ACAD_REACTORS
330
3AC8
102
}
330
3AC8
100
AcDbXrecord
280
     1
290
     1
  0
XRECORD
  5
3ACC
102
{ACAD_REACTORS
330
3AC8
102
}
330
3AC8
100
AcDbXrecord
280
     1
290
     1
  0
XRECORD
  5
3ACD
102
{ACAD_REACTORS
330
3AC8
102
}
330
3AC8
100
AcDbXrecord
280
     1
1000
auto
  0
XRECORD
  5
3ACE
102
{ACAD_REACTORS
330
3AC8
102
}
330
3AC8
100
AcDbXrecord
280
     1
1000
auto
  0
XRECORD
  5
3ACF
102
{ACAD_REACTORS
330
3AC8
102
}
330
3AC8
100
AcDbXrecord
280
     1
1000
auto
  0
XRECORD
  5
3AD0
102
{ACAD_REACTORS
330
3AC8
102
}
330
3AC8
100
AcDbXrecord
280
     1
1000
auto
  0
XRECORD
  5
3AD1
102
{ACAD_REACTORS
330
3AC8
102
}
330
3AC8
100
AcDbXrecord
280
     1
1000
auto
  0
XRECORD
  5
3AD2
102
{ACAD_REACTORS
330
3AC8
102
}
330
3AC8
100
AcDbXrecord
280
     1
1000
auto
  0
XRECORD
  5
3AD3
102
{ACAD_REACTORS
330
3AC8
102
}
330
3AC8
100
AcDbXrecord
280
     1
1000
auto
  0
XRECORD
  5
3AD4
102
{ACAD_REACTORS
330
3AC8
102
}
330
3AC8
100
AcDbXrecord
280
     1
1000
auto
  0
XRECORD
  5
3AD5
102
{ACAD_REACTORS
330
3AC8
102
}
330
3AC8
100
AcDbXrecord
280
     1
290
     0
  0
XRECORD
  5
3AD6
102
{ACAD_REACTORS
330
3AC8
102
}
330
3AC8
100
AcDbXrecord
280
     1
290
     0
  0
XRECORD
  5
3AD7
102
{ACAD_REACTORS
330
3AC8
102
}
330
3AC8
100
AcDbXrecord
280
     1
290
     0
  0
XRECORD
  5
3AD8
102
{ACAD_REACTORS
330
3AC8
102
}
330
3AC8
100
AcDbXrecord
280
     1
290
     0
  0
XRECORD
  5
3AD9
102
{ACAD_REACTORS
330
3AC8
102
}
330
3AC8
100
AcDbXrecord
280
     1
 90
        0
  0
XRECORD
  5
3ADA
102
{ACAD_REACTORS
330
3AC8
102
}
330
3AC8
100
AcDbXrecord
280
     1
 90
        0
  0
XRECORD
  5
3ADB
102
{ACAD_REACTORS
330
3AC8
102
}
330
3AC8
100
AcDbXrecord
280
     1
 90
        0
  0
XRECORD
  5
3ADC
102
{ACAD_REACTORS
330
3AC8
102
}
330
3AC8
100
AcDbXrecord
280
     1
 90
        0
  0
XRECORD
  5
3ADD
102
{ACAD_REACTORS
330
3AC8
102
}
330
3AC8
100
AcDbXrecord
280
     1
1000
auto
  0
XRECORD
  5
3ADE
102
{ACAD_REACTORS
330
3AC8
102
}
330
3AC8
100
AcDbXrecord
280
     1
1000
auto
  0
XRECORD
  5
3ADF
102
{ACAD_REACTORS
330
3AC8
102
}
330
3AC8
100
AcDbXrecord
280
     1
1000
auto
  0
XRECORD
  5
3AE0
102
{ACAD_REACTORS
330
3AC8
102
}
330
3AC8
100
AcDbXrecord
280
     1
1000
auto
  0
XRECORD
  5
3AE1
102
{ACAD_REACTORS
330
3AC8
102
}
330
3AC8
100
AcDbXrecord
280
     1
1000
auto
  0
XRECORD
  5
3AE2
102
{ACAD_REACTORS
330
3AC8
102
}
330
3AC8
100
AcDbXrecord
280
     1
1000
auto
  0
XRECORD
  5
3AE3
102
{ACAD_REACTORS
330
3AC8
102
}
330
3AC8
100
AcDbXrecord
280
     1
1000
auto
  0
XRECORD
  5
3AE4
102
{ACAD_REACTORS
330
3AC8
102
}
330
3AC8
100
AcDbXrecord
280
     1
1000
auto
  0
XRECORD
  5
3AE5
102
{ACAD_REACTORS
330
3AC8
102
}
330
3AC8
100
AcDbXrecord
280
     1
 90
        1
  0
XRECORD
  5
3AE6
102
{ACAD_REACTORS
330
3AC8
102
}
330
3AC8
100
AcDbXrecord
280
     1
 40
10.0
  0
XRECORD
  5
3AE7
102
{ACAD_REACTORS
330
3AC8
102
}
330
3AC8
100
AcDbXrecord
280
     1
 40
10.0
  0
XRECORD
  5
3AE8
102
{ACAD_REACTORS
330
3AC8
102
}
330
3AC8
100
AcDbXrecord
280
     1
 40
10.0
  0
XRECORD
  5
3AE9
102
{ACAD_REACTORS
330
3AC8
102
}
330
3AC8
100
AcDbXrecord
280
     1
 40
10.0
  0
XRECORD
  5
3AEA
102
{ACAD_REACTORS
330
3AC8
102
}
330
3AC8
100
AcDbXrecord
280
     1
290
     0
  0
XRECORD
  5
3AEB
102
{ACAD_REACTORS
330
3AC8
102
}
330
3AC8
100
AcDbXrecord
280
     1
 90
        1
  0
XRECORD
  5
3AEC
102
{ACAD_REACTORS
330
3AC8
102
}
330
3AC8
100
AcDbXrecord
280
     1
 40
-83.19151748791464
  0
XRECORD
  5
3AED
102
{ACAD_REACTORS
330
3AC8
102
}
330
3AC8
100
AcDbXrecord
280
     1
 40
-337.0060185586507
  0
XRECORD
  5
3AEE
102
{ACAD_REACTORS
330
3AC8
102
}
330
3AC8
100
AcDbXrecord
280
     1
1000
Portrait
  0
XRECORD
  5
3AEF
102
{ACAD_REACTORS
330
3AC8
102
}
330
3AC8
100
AcDbXrecord
280
     1
 40
297.0
  0
XRECORD
  5
3AF0
102
{ACAD_REACTORS
330
3AC8
102
}
330
3AC8
100
AcDbXrecord
280
     1
 40
210.0
  0
XRECORD
  5
3AF1
102
{ACAD_REACTORS
330
3AC8
102
}
330
3AC8
100
AcDbXrecord
280
     1
1000
0.27049799433737615
  0
XRECORD
  5
3AF2
102
{ACAD_REACTORS
330
3AC8
102
}
330
3AC8
100
AcDbXrecord
280
     1
290
     1
  0
XRECORD
  5
3AF3
102
{ACAD_REACTORS
330
3AC8
102
}
330
3AC8
100
AcDbXrecord
280
     1
 90
        4
  0
DICTIONARY
  5
3B1A
330
3A8C
100
AcDbDictionary
280
     1
281
     1
  3
ACAD_XREC_ROUNDTRIP
360
3B1B
  0
DICTIONARY
  5
3B20
330
3A8F
100
AcDbDictionary
280
     1
281
     1
  3
ACAD_XREC_ROUNDTRIP
360
3B21
  0
DICTIONARY
  5
3B28
330
3A93
100
AcDbDictionary
280
     1
281
     1
  3
ACAD_XREC_ROUNDTRIP
360
3B29
  0
DICTIONARY
  5
3B30
330
3A97
100
AcDbDictionary
280
     1
281
     1
  3
ACAD_XREC_ROUNDTRIP
360
3B31
  0
DICTIONARY
  5
3B24
330
3A91
100
AcDbDictionary
280
     1
281
     1
  3
ACAD_XREC_ROUNDTRIP
360
3B25
  0
DICTIONARY
  5
3B26
330
3A92
100
AcDbDictionary
280
     1
281
     1
  3
ACAD_XREC_ROUNDTRIP
360
3B27
  0
DICTIONARY
  5
3B36
330
3A9A
100
AcDbDictionary
280
     1
281
     1
  3
ACAD_XREC_ROUNDTRIP
360
3B37
  0
DICTIONARY
  5
3B2E
330
3A96
100
AcDbDictionary
280
     1
281
     1
  3
ACAD_XREC_ROUNDTRIP
360
3B2F
  0
DICTIONARY
  5
3B12
330
3A88
100
AcDbDictionary
280
     1
281
     1
  3
ACAD_XREC_ROUNDTRIP
360
3B13
  0
DICTIONARY
  5
3B14
330
3A89
100
AcDbDictionary
280
     1
281
     1
  3
ACAD_XREC_ROUNDTRIP
360
3B15
  0
DICTIONARY
  5
3B16
330
3A8A
100
AcDbDictionary
280
     1
281
     1
  3
ACAD_XREC_ROUNDTRIP
360
3B17
  0
DICTIONARY
  5
3B18
330
3A8B
100
AcDbDictionary
280
     1
281
     1
  3
ACAD_XREC_ROUNDTRIP
360
3B19
  0
DICTIONARY
  5
3B1E
330
3A8E
100
AcDbDictionary
280
     1
281
     1
  3
ACAD_XREC_ROUNDTRIP
360
3B1F
  0
DICTIONARY
  5
3B32
330
3A98
100
AcDbDictionary
280
     1
281
     1
  3
ACAD_XREC_ROUNDTRIP
360
3B33
  0
DICTIONARY
  5
3B2C
330
3A95
100
AcDbDictionary
280
     1
281
     1
  3
ACAD_XREC_ROUNDTRIP
360
3B2D
  0
DICTIONARY
  5
3B34
330
3A99
100
AcDbDictionary
280
     1
281
     1
  3
ACAD_XREC_ROUNDTRIP
360
3B35
  0
DICTIONARY
  5
3B22
330
3A90
100
AcDbDictionary
280
     1
281
     1
  3
ACAD_XREC_ROUNDTRIP
360
3B23
  0
DICTIONARY
  5
3B40
330
3A9F
100
AcDbDictionary
280
     1
281
     1
  3
ACAD_XREC_ROUNDTRIP
360
3B41
  0
DICTIONARY
  5
3B3E
330
3A9E
100
AcDbDictionary
280
     1
281
     1
  3
ACAD_XREC_ROUNDTRIP
360
3B3F
  0
DICTIONARY
  5
3B38
330
3A9B
100
AcDbDictionary
280
     1
281
     1
  3
ACAD_XREC_ROUNDTRIP
360
3B39
  0
DICTIONARY
  5
3B3A
330
3A9C
100
AcDbDictionary
280
     1
281
     1
  3
ACAD_XREC_ROUNDTRIP
360
3B3B
  0
DICTIONARY
  5
3B2A
330
3A94
100
AcDbDictionary
280
     1
281
     1
  3
ACAD_XREC_ROUNDTRIP
360
3B2B
  0
DICTIONARY
  5
3B1C
330
3A8D
100
AcDbDictionary
280
     1
281
     1
  3
ACAD_XREC_ROUNDTRIP
360
3B1D
  0
DICTIONARY
  5
3B3C
330
3A9D
100
AcDbDictionary
280
     1
281
     1
  3
ACAD_XREC_ROUNDTRIP
360
3B3D
  0
XRECORD
  5
3B1B
102
{ACAD_REACTORS
330
3B1A
102
}
330
3B1A
100
AcDbXrecord
280
     1
102
RTVSPropertyOp0
 70
     1
102
RTVSPropertyOp1
 70
     1
102
RTVSPropertyOp2
 70
     1
102
RTVSPropertyOp3
 70
     1
102
RTVSPropertyOp4
 70
     1
102
RTVSPropertyOp5
 70
     1
102
RTVSPropertyOp6
 70
     1
102
RTVSPropertyOp7
 70
     1
102
RTVSPropertyOp8
 70
     1
102
RTVSPropertyOp9
 70
     1
102
RTVSPropertyOp10
 70
     1
102
RTVSPropertyOp11
 70
     1
102
RTVSPropertyOp12
 70
     1
102
RTVSPropertyOp13
 70
     1
102
RTVSPropertyOp14
 70
     1
102
RTVSPropertyOp15
 70
     1
102
RTVSPropertyOp16
 70
     1
102
RTVSPropertyOp17
 70
     1
102
RTVSPropertyOp18
 70
     1
102
RTVSPropertyOp19
 70
     1
102
RTVSPropertyOp20
 70
     1
102
RTVSPropertyOp21
 70
     1
102
RTVSPropertyOp22
 70
     1
102
RTVSPropertyOp23
 70
     1
102
RTVSPropertyOp24
 70
     1
102
RTVSPropertyOp25
 70
     1
102
RTVSPropertyOp26
 70
     1
102
RTVSPropertyOp27
 70
     1
102
RTVSPropertyOp28
 70
     1
102
RTVSPropertyOp29
 70
     1
102
RTVSPropertyOp30
 70
     1
102
RTVSPropertyOp31
 70
     1
102
RTVSPropertyOp32
 70
     1
102
RTVSPropertyOp33
 70
     1
102
RTVSPropertyOp34
 70
     1
102
RTVSPropertyOp35
 70
     1
102
RTVSPropertyOp36
 70
     1
102
RTVSPropertyOp37
 70
     1
102
RTVSPropertyOp38
 70
     1
102
RTVSPropertyOp39
 70
     1
102
RTVSPropertyOp40
 70
     1
102
RTVSPropertyOp41
 70
     1
102
RTVSPropertyOp42
 70
     1
102
RTVSPropertyOp43
 70
     1
102
RTVSPropertyOp44
 70
     1
102
RTVSPropertyOp45
 70
     1
102
RTVSPropertyOp46
 70
     1
102
RTVSPropertyOp47
 70
     1
102
RTVSPropertyOp48
 70
     1
102
RTVSPropertyOp49
 70
     1
102
RTVSPropertyOp50
 70
     1
102
RTVSPropertyOp51
 70
     0
102
RTVSPropertyOp52
 70
     0
102
RTVSPropertyOp53
 70
     1
102
RTVSPropertyOp54
 70
     1
102
RTVSPropertyOp55
 70
     1
102
RTVSPropertyOp56
 70
     1
102
RTVSPropertyOp57
 70
     1
102
RTVSPost2010Prop28
280
     1
102
RTVSPost2010PropOp28
 70
     1
102
RTVSPost2010Prop29
280
     1
102
RTVSPost2010PropOp29
 70
     1
102
RTVSPost2010Prop30
280
     0
102
RTVSPost2010PropOp30
 70
     1
102
RTVSPost2010Prop31
280
     0
102
RTVSPost2010PropOp31
 70
     1
102
RTVSPost2010Prop32
280
     0
102
RTVSPost2010PropOp32
 70
     1
102
RTVSPost2010Prop33
280
     0
102
RTVSPost2010PropOp33
 70
     1
102
RTVSPost2010Prop34
280
     0
102
RTVSPost2010PropOp34
 70
     1
102
RTVSPost2010Prop35
280
     0
102
RTVSPost2010PropOp35
 70
     1
102
RTVSPost2010Prop36
280
     0
102
RTVSPost2010PropOp36
 70
     1
102
RTVSPost2010Prop37
 90
       50
102
RTVSPost2010PropOp37
 70
     1
102
RTVSPost2010Prop38
140
0.0
102
RTVSPost2010PropOp38
 70
     1
102
RTVSPost2010Prop39
140
1.0
102
RTVSPost2010PropOp39
 70
     1
102
RTVSPost2010Prop40
 90
        0
102
RTVSPost2010PropOp40
 70
     1
102
RTVSPost2010Prop41ColorIndex
 90
       18
102
RTVSPost2010Prop41ColorRGB
 90
        0
102
RTVSPost2010PropOp41
 70
     1
102
RTVSPost2010Prop42
 90
       50
102
RTVSPost2010PropOp42
 70
     1
102
RTVSPost2010Prop43
 90
        3
102
RTVSPost2010PropOp43
 70
     1
102
RTVSPost2010Prop44ColorIndex
 90
        5
102
RTVSPost2010Prop44ColorRGB
 90
      255
102
RTVSPost2010PropOp44
 70
     1
102
RTVSPost2010Prop45
280
     0
102
RTVSPost2010PropOp45
 70
     1
102
RTVSPost2010Prop46
 90
       50
102
RTVSPost2010PropOp46
 70
     1
102
RTVSPost2010Prop47
 90
       50
102
RTVSPost2010PropOp47
 70
     1
102
RTVSPost2010Prop48
 90
       50
102
RTVSPost2010PropOp48
 70
     1
102
RTVSPost2010Prop49
280
     0
102
RTVSPost2010PropOp49
 70
     1
102
RTVSPost2010Prop50
 90
       50
102
RTVSPost2010PropOp50
 70
     1
102
RTVSPost2010Prop51ColorIndex
 90
      256
102
RTVSPost2010Prop51ColorRGB
 90
-16777216
102
RTVSPost2010PropOp51
 70
     0
102
RTVSPost2010Prop52
140
1.0
102
RTVSPost2010PropOp52
 70
     0
102
RTVSPost2010Prop53
 90
        2
102
RTVSPost2010PropOp53
 70
     1
102
RTVSPost2010Prop54
  1
strokes_ogs.tif
102
RTVSPost2010PropOp54
 70
     1
102
RTVSPost2010Prop55
280
     0
102
RTVSPost2010PropOp55
 70
     1
102
RTVSPost2010Prop56
140
1.0
102
RTVSPost2010PropOp56
 70
     1
102
RTVSPost2010Prop57
140
1.0
102
RTVSPost2010PropOp57
 70
     1
  0
XRECORD
  5
3B21
102
{ACAD_REACTORS
330
3B20
102
}
330
3B20
100
AcDbXrecord
280
     1
102
RTVSPropertyOp0
 70
     1
102
RTVSPropertyOp1
 70
     1
102
RTVSPropertyOp2
 70
     1
102
RTVSPropertyOp3
 70
     1
102
RTVSPropertyOp4
 70
     1
102
RTVSPropertyOp5
 70
     1
102
RTVSPropertyOp6
 70
     1
102
RTVSPropertyOp7
 70
     1
102
RTVSPropertyOp8
 70
     1
102
RTVSPropertyOp9
 70
     1
102
RTVSPropertyOp10
 70
     1
102
RTVSPropertyOp11
 70
     1
102
RTVSPropertyOp12
 70
     1
102
RTVSPropertyOp13
 70
     1
102
RTVSPropertyOp14
 70
     1
102
RTVSPropertyOp15
 70
     1
102
RTVSPropertyOp16
 70
     1
102
RTVSPropertyOp17
 70
     1
102
RTVSPropertyOp18
 70
     1
102
RTVSPropertyOp19
 70
     1
102
RTVSPropertyOp20
 70
     1
102
RTVSPropertyOp21
 70
     1
102
RTVSPropertyOp22
 70
     1
102
RTVSPropertyOp23
 70
     1
102
RTVSPropertyOp24
 70
     1
102
RTVSPropertyOp25
 70
     1
102
RTVSPropertyOp26
 70
     1
102
RTVSPropertyOp27
 70
     1
102
RTVSPropertyOp28
 70
     1
102
RTVSPropertyOp29
 70
     1
102
RTVSPropertyOp30
 70
     1
102
RTVSPropertyOp31
 70
     1
102
RTVSPropertyOp32
 70
     1
102
RTVSPropertyOp33
 70
     1
102
RTVSPropertyOp34
 70
     1
102
RTVSPropertyOp35
 70
     1
102
RTVSPropertyOp36
 70
     1
102
RTVSPropertyOp37
 70
     1
102
RTVSPropertyOp38
 70
     1
102
RTVSPropertyOp39
 70
     1
102
RTVSPropertyOp40
 70
     1
102
RTVSPropertyOp41
 70
     1
102
RTVSPropertyOp42
 70
     1
102
RTVSPropertyOp43
 70
     1
102
RTVSPropertyOp44
 70
     1
102
RTVSPropertyOp45
 70
     1
102
RTVSPropertyOp46
 70
     1
102
RTVSPropertyOp47
 70
     1
102
RTVSPropertyOp48
 70
     1
102
RTVSPropertyOp49
 70
     1
102
RTVSPropertyOp50
 70
     1
102
RTVSPropertyOp51
 70
     0
102
RTVSPropertyOp52
 70
     0
102
RTVSPropertyOp53
 70
     1
102
RTVSPropertyOp54
 70
     1
102
RTVSPropertyOp55
 70
     1
102
RTVSPropertyOp56
 70
     1
102
RTVSPropertyOp57
 70
     1
102
RTVSPost2010Prop28
280
     0
102
RTVSPost2010PropOp28
 70
     1
102
RTVSPost2010Prop29
280
     1
102
RTVSPost2010PropOp29
 70
     1
102
RTVSPost2010Prop30
280
     1
102
RTVSPost2010PropOp30
 70
     1
102
RTVSPost2010Prop31
280
     0
102
RTVSPost2010PropOp31
 70
     1
102
RTVSPost2010Prop32
280
     0
102
RTVSPost2010PropOp32
 70
     1
102
RTVSPost2010Prop33
280
     0
102
RTVSPost2010PropOp33
 70
     1
102
RTVSPost2010Prop34
280
     0
102
RTVSPost2010PropOp34
 70
     1
102
RTVSPost2010Prop35
280
     0
102
RTVSPost2010PropOp35
 70
     1
102
RTVSPost2010Prop36
280
     0
102
RTVSPost2010PropOp36
 70
     1
102
RTVSPost2010Prop37
 90
       50
102
RTVSPost2010PropOp37
 70
     1
102
RTVSPost2010Prop38
140
0.0
102
RTVSPost2010PropOp38
 70
     1
102
RTVSPost2010Prop39
140
1.0
102
RTVSPost2010PropOp39
 70
     1
102
RTVSPost2010Prop40
 90
        0
102
RTVSPost2010PropOp40
 70
     1
102
RTVSPost2010Prop41ColorIndex
 90
       18
102
RTVSPost2010Prop41ColorRGB
 90
        0
102
RTVSPost2010PropOp41
 70
     1
102
RTVSPost2010Prop42
 90
       50
102
RTVSPost2010PropOp42
 70
     1
102
RTVSPost2010Prop43
 90
        3
102
RTVSPost2010PropOp43
 70
     1
102
RTVSPost2010Prop44ColorIndex
 90
        5
102
RTVSPost2010Prop44ColorRGB
 90
      255
102
RTVSPost2010PropOp44
 70
     1
102
RTVSPost2010Prop45
280
     0
102
RTVSPost2010PropOp45
 70
     1
102
RTVSPost2010Prop46
 90
       50
102
RTVSPost2010PropOp46
 70
     1
102
RTVSPost2010Prop47
 90
       50
102
RTVSPost2010PropOp47
 70
     1
102
RTVSPost2010Prop48
 90
       50
102
RTVSPost2010PropOp48
 70
     1
102
RTVSPost2010Prop49
280
     0
102
RTVSPost2010PropOp49
 70
     1
102
RTVSPost2010Prop50
 90
       50
102
RTVSPost2010PropOp50
 70
     1
102
RTVSPost2010Prop51ColorIndex
 90
      256
102
RTVSPost2010Prop51ColorRGB
 90
-16777216
102
RTVSPost2010PropOp51
 70
     0
102
RTVSPost2010Prop52
140
1.0
102
RTVSPost2010PropOp52
 70
     0
102
RTVSPost2010Prop53
 90
        2
102
RTVSPost2010PropOp53
 70
     1
102
RTVSPost2010Prop54
  1
strokes_ogs.tif
102
RTVSPost2010PropOp54
 70
     1
102
RTVSPost2010Prop55
280
     0
102
RTVSPost2010PropOp55
 70
     1
102
RTVSPost2010Prop56
140
1.0
102
RTVSPost2010PropOp56
 70
     1
102
RTVSPost2010Prop57
140
1.0
102
RTVSPost2010PropOp57
 70
     1
  0
XRECORD
  5
3B29
102
{ACAD_REACTORS
330
3B28
102
}
330
3B28
100
AcDbXrecord
280
     1
102
RTVSPropertyOp0
 70
     1
102
RTVSPropertyOp1
 70
     1
102
RTVSPropertyOp2
 70
     1
102
RTVSPropertyOp3
 70
     1
102
RTVSPropertyOp4
 70
     1
102
RTVSPropertyOp5
 70
     1
102
RTVSPropertyOp6
 70
     1
102
RTVSPropertyOp7
 70
     1
102
RTVSPropertyOp8
 70
     1
102
RTVSPropertyOp9
 70
     1
102
RTVSPropertyOp10
 70
     1
102
RTVSPropertyOp11
 70
     1
102
RTVSPropertyOp12
 70
     1
102
RTVSPropertyOp13
 70
     1
102
RTVSPropertyOp14
 70
     1
102
RTVSPropertyOp15
 70
     1
102
RTVSPropertyOp16
 70
     1
102
RTVSPropertyOp17
 70
     1
102
RTVSPropertyOp18
 70
     1
102
RTVSPropertyOp19
 70
     1
102
RTVSPropertyOp20
 70
     1
102
RTVSPropertyOp21
 70
     1
102
RTVSPropertyOp22
 70
     1
102
RTVSPropertyOp23
 70
     1
102
RTVSPropertyOp24
 70
     1
102
RTVSPropertyOp25
 70
     1
102
RTVSPropertyOp26
 70
     1
102
RTVSPropertyOp27
 70
     1
102
RTVSPropertyOp28
 70
     1
102
RTVSPropertyOp29
 70
     1
102
RTVSPropertyOp30
 70
     1
102
RTVSPropertyOp31
 70
     1
102
RTVSPropertyOp32
 70
     1
102
RTVSPropertyOp33
 70
     1
102
RTVSPropertyOp34
 70
     1
102
RTVSPropertyOp35
 70
     1
102
RTVSPropertyOp36
 70
     1
102
RTVSPropertyOp37
 70
     1
102
RTVSPropertyOp38
 70
     1
102
RTVSPropertyOp39
 70
     1
102
RTVSPropertyOp40
 70
     1
102
RTVSPropertyOp41
 70
     1
102
RTVSPropertyOp42
 70
     1
102
RTVSPropertyOp43
 70
     1
102
RTVSPropertyOp44
 70
     1
102
RTVSPropertyOp45
 70
     1
102
RTVSPropertyOp46
 70
     1
102
RTVSPropertyOp47
 70
     1
102
RTVSPropertyOp48
 70
     1
102
RTVSPropertyOp49
 70
     1
102
RTVSPropertyOp50
 70
     1
102
RTVSPropertyOp51
 70
     0
102
RTVSPropertyOp52
 70
     0
102
RTVSPropertyOp53
 70
     1
102
RTVSPropertyOp54
 70
     1
102
RTVSPropertyOp55
 70
     1
102
RTVSPropertyOp56
 70
     1
102
RTVSPropertyOp57
 70
     1
102
RTVSPost2010Prop28
280
     0
102
RTVSPost2010PropOp28
 70
     1
102
RTVSPost2010Prop29
280
     1
102
RTVSPost2010PropOp29
 70
     1
102
RTVSPost2010Prop30
280
     1
102
RTVSPost2010PropOp30
 70
     1
102
RTVSPost2010Prop31
280
     0
102
RTVSPost2010PropOp31
 70
     1
102
RTVSPost2010Prop32
280
     0
102
RTVSPost2010PropOp32
 70
     1
102
RTVSPost2010Prop33
280
     0
102
RTVSPost2010PropOp33
 70
     1
102
RTVSPost2010Prop34
280
     0
102
RTVSPost2010PropOp34
 70
     1
102
RTVSPost2010Prop35
280
     0
102
RTVSPost2010PropOp35
 70
     1
102
RTVSPost2010Prop36
280
     0
102
RTVSPost2010PropOp36
 70
     1
102
RTVSPost2010Prop37
 90
       50
102
RTVSPost2010PropOp37
 70
     1
102
RTVSPost2010Prop38
140
0.0
102
RTVSPost2010PropOp38
 70
     1
102
RTVSPost2010Prop39
140
1.0
102
RTVSPost2010PropOp39
 70
     1
102
RTVSPost2010Prop40
 90
        0
102
RTVSPost2010PropOp40
 70
     1
102
RTVSPost2010Prop41ColorIndex
 90
       18
102
RTVSPost2010Prop41ColorRGB
 90
        0
102
RTVSPost2010PropOp41
 70
     1
102
RTVSPost2010Prop42
 90
       50
102
RTVSPost2010PropOp42
 70
     1
102
RTVSPost2010Prop43
 90
        3
102
RTVSPost2010PropOp43
 70
     1
102
RTVSPost2010Prop44ColorIndex
 90
        5
102
RTVSPost2010Prop44ColorRGB
 90
      255
102
RTVSPost2010PropOp44
 70
     1
102
RTVSPost2010Prop45
280
     0
102
RTVSPost2010PropOp45
 70
     1
102
RTVSPost2010Prop46
 90
       50
102
RTVSPost2010PropOp46
 70
     1
102
RTVSPost2010Prop47
 90
       50
102
RTVSPost2010PropOp47
 70
     1
102
RTVSPost2010Prop48
 90
       50
102
RTVSPost2010PropOp48
 70
     1
102
RTVSPost2010Prop49
280
     0
102
RTVSPost2010PropOp49
 70
     1
102
RTVSPost2010Prop50
 90
       50
102
RTVSPost2010PropOp50
 70
     1
102
RTVSPost2010Prop51ColorIndex
 90
      256
102
RTVSPost2010Prop51ColorRGB
 90
-16777216
102
RTVSPost2010PropOp51
 70
     0
102
RTVSPost2010Prop52
140
1.0
102
RTVSPost2010PropOp52
 70
     0
102
RTVSPost2010Prop53
 90
        2
102
RTVSPost2010PropOp53
 70
     1
102
RTVSPost2010Prop54
  1
strokes_ogs.tif
102
RTVSPost2010PropOp54
 70
     1
102
RTVSPost2010Prop55
280
     0
102
RTVSPost2010PropOp55
 70
     1
102
RTVSPost2010Prop56
140
1.0
102
RTVSPost2010PropOp56
 70
     1
102
RTVSPost2010Prop57
140
1.0
102
RTVSPost2010PropOp57
 70
     1
  0
XRECORD
  5
3B31
102
{ACAD_REACTORS
330
3B30
102
}
330
3B30
100
AcDbXrecord
280
     1
102
RTVSPropertyOp0
 70
     1
102
RTVSPropertyOp1
 70
     1
102
RTVSPropertyOp2
 70
     1
102
RTVSPropertyOp3
 70
     1
102
RTVSPropertyOp4
 70
     1
102
RTVSPropertyOp5
 70
     1
102
RTVSPropertyOp6
 70
     1
102
RTVSPropertyOp7
 70
     1
102
RTVSPropertyOp8
 70
     1
102
RTVSPropertyOp9
 70
     1
102
RTVSPropertyOp10
 70
     1
102
RTVSPropertyOp11
 70
     1
102
RTVSPropertyOp12
 70
     1
102
RTVSPropertyOp13
 70
     1
102
RTVSPropertyOp14
 70
     1
102
RTVSPropertyOp15
 70
     1
102
RTVSPropertyOp16
 70
     1
102
RTVSPropertyOp17
 70
     1
102
RTVSPropertyOp18
 70
     1
102
RTVSPropertyOp19
 70
     1
102
RTVSPropertyOp20
 70
     1
102
RTVSPropertyOp21
 70
     1
102
RTVSPropertyOp22
 70
     1
102
RTVSPropertyOp23
 70
     1
102
RTVSPropertyOp24
 70
     1
102
RTVSPropertyOp25
 70
     1
102
RTVSPropertyOp26
 70
     1
102
RTVSPropertyOp27
 70
     1
102
RTVSPropertyOp28
 70
     1
102
RTVSPropertyOp29
 70
     1
102
RTVSPropertyOp30
 70
     1
102
RTVSPropertyOp31
 70
     1
102
RTVSPropertyOp32
 70
     1
102
RTVSPropertyOp33
 70
     1
102
RTVSPropertyOp34
 70
     1
102
RTVSPropertyOp35
 70
     1
102
RTVSPropertyOp36
 70
     1
102
RTVSPropertyOp37
 70
     1
102
RTVSPropertyOp38
 70
     1
102
RTVSPropertyOp39
 70
     1
102
RTVSPropertyOp40
 70
     1
102
RTVSPropertyOp41
 70
     1
102
RTVSPropertyOp42
 70
     1
102
RTVSPropertyOp43
 70
     1
102
RTVSPropertyOp44
 70
     1
102
RTVSPropertyOp45
 70
     1
102
RTVSPropertyOp46
 70
     1
102
RTVSPropertyOp47
 70
     1
102
RTVSPropertyOp48
 70
     1
102
RTVSPropertyOp49
 70
     1
102
RTVSPropertyOp50
 70
     1
102
RTVSPropertyOp51
 70
     0
102
RTVSPropertyOp52
 70
     0
102
RTVSPropertyOp53
 70
     1
102
RTVSPropertyOp54
 70
     1
102
RTVSPropertyOp55
 70
     1
102
RTVSPropertyOp56
 70
     1
102
RTVSPropertyOp57
 70
     1
102
RTVSPost2010Prop28
280
     0
102
RTVSPost2010PropOp28
 70
     1
102
RTVSPost2010Prop29
280
     1
102
RTVSPost2010PropOp29
 70
     1
102
RTVSPost2010Prop30
280
     1
102
RTVSPost2010PropOp30
 70
     1
102
RTVSPost2010Prop31
280
     0
102
RTVSPost2010PropOp31
 70
     1
102
RTVSPost2010Prop32
280
     0
102
RTVSPost2010PropOp32
 70
     1
102
RTVSPost2010Prop33
280
     0
102
RTVSPost2010PropOp33
 70
     1
102
RTVSPost2010Prop34
280
     0
102
RTVSPost2010PropOp34
 70
     1
102
RTVSPost2010Prop35
280
     0
102
RTVSPost2010PropOp35
 70
     1
102
RTVSPost2010Prop36
280
     0
102
RTVSPost2010PropOp36
 70
     1
102
RTVSPost2010Prop37
 90
       50
102
RTVSPost2010PropOp37
 70
     1
102
RTVSPost2010Prop38
140
0.0
102
RTVSPost2010PropOp38
 70
     1
102
RTVSPost2010Prop39
140
1.0
102
RTVSPost2010PropOp39
 70
     1
102
RTVSPost2010Prop40
 90
        0
102
RTVSPost2010PropOp40
 70
     1
102
RTVSPost2010Prop41ColorIndex
 90
       18
102
RTVSPost2010Prop41ColorRGB
 90
        0
102
RTVSPost2010PropOp41
 70
     1
102
RTVSPost2010Prop42
 90
       50
102
RTVSPost2010PropOp42
 70
     1
102
RTVSPost2010Prop43
 90
        3
102
RTVSPost2010PropOp43
 70
     1
102
RTVSPost2010Prop44ColorIndex
 90
        5
102
RTVSPost2010Prop44ColorRGB
 90
      255
102
RTVSPost2010PropOp44
 70
     1
102
RTVSPost2010Prop45
280
     0
102
RTVSPost2010PropOp45
 70
     1
102
RTVSPost2010Prop46
 90
       50
102
RTVSPost2010PropOp46
 70
     1
102
RTVSPost2010Prop47
 90
       50
102
RTVSPost2010PropOp47
 70
     1
102
RTVSPost2010Prop48
 90
       50
102
RTVSPost2010PropOp48
 70
     1
102
RTVSPost2010Prop49
280
     0
102
RTVSPost2010PropOp49
 70
     1
102
RTVSPost2010Prop50
 90
       50
102
RTVSPost2010PropOp50
 70
     1
102
RTVSPost2010Prop51ColorIndex
 90
      256
102
RTVSPost2010Prop51ColorRGB
 90
-16777216
102
RTVSPost2010PropOp51
 70
     0
102
RTVSPost2010Prop52
140
1.0
102
RTVSPost2010PropOp52
 70
     0
102
RTVSPost2010Prop53
 90
        2
102
RTVSPost2010PropOp53
 70
     1
102
RTVSPost2010Prop54
  1
strokes_ogs.tif
102
RTVSPost2010PropOp54
 70
     1
102
RTVSPost2010Prop55
280
     0
102
RTVSPost2010PropOp55
 70
     1
102
RTVSPost2010Prop56
140
1.0
102
RTVSPost2010PropOp56
 70
     1
102
RTVSPost2010Prop57
140
1.0
102
RTVSPost2010PropOp57
 70
     1
  0
XRECORD
  5
3B25
102
{ACAD_REACTORS
330
3B24
102
}
330
3B24
100
AcDbXrecord
280
     1
102
RTVSPropertyOp0
 70
     1
102
RTVSPropertyOp1
 70
     1
102
RTVSPropertyOp2
 70
     1
102
RTVSPropertyOp3
 70
     1
102
RTVSPropertyOp4
 70
     1
102
RTVSPropertyOp5
 70
     1
102
RTVSPropertyOp6
 70
     1
102
RTVSPropertyOp7
 70
     1
102
RTVSPropertyOp8
 70
     1
102
RTVSPropertyOp9
 70
     1
102
RTVSPropertyOp10
 70
     1
102
RTVSPropertyOp11
 70
     1
102
RTVSPropertyOp12
 70
     1
102
RTVSPropertyOp13
 70
     1
102
RTVSPropertyOp14
 70
     1
102
RTVSPropertyOp15
 70
     1
102
RTVSPropertyOp16
 70
     1
102
RTVSPropertyOp17
 70
     1
102
RTVSPropertyOp18
 70
     1
102
RTVSPropertyOp19
 70
     1
102
RTVSPropertyOp20
 70
     1
102
RTVSPropertyOp21
 70
     1
102
RTVSPropertyOp22
 70
     1
102
RTVSPropertyOp23
 70
     1
102
RTVSPropertyOp24
 70
     1
102
RTVSPropertyOp25
 70
     1
102
RTVSPropertyOp26
 70
     1
102
RTVSPropertyOp27
 70
     1
102
RTVSPropertyOp28
 70
     1
102
RTVSPropertyOp29
 70
     1
102
RTVSPropertyOp30
 70
     1
102
RTVSPropertyOp31
 70
     1
102
RTVSPropertyOp32
 70
     1
102
RTVSPropertyOp33
 70
     1
102
RTVSPropertyOp34
 70
     1
102
RTVSPropertyOp35
 70
     1
102
RTVSPropertyOp36
 70
     1
102
RTVSPropertyOp37
 70
     1
102
RTVSPropertyOp38
 70
     1
102
RTVSPropertyOp39
 70
     1
102
RTVSPropertyOp40
 70
     1
102
RTVSPropertyOp41
 70
     1
102
RTVSPropertyOp42
 70
     1
102
RTVSPropertyOp43
 70
     1
102
RTVSPropertyOp44
 70
     1
102
RTVSPropertyOp45
 70
     1
102
RTVSPropertyOp46
 70
     1
102
RTVSPropertyOp47
 70
     1
102
RTVSPropertyOp48
 70
     1
102
RTVSPropertyOp49
 70
     1
102
RTVSPropertyOp50
 70
     1
102
RTVSPropertyOp51
 70
     0
102
RTVSPropertyOp52
 70
     0
102
RTVSPropertyOp53
 70
     1
102
RTVSPropertyOp54
 70
     1
102
RTVSPropertyOp55
 70
     1
102
RTVSPropertyOp56
 70
     1
102
RTVSPropertyOp57
 70
     1
102
RTVSPost2010Prop28
280
     0
102
RTVSPost2010PropOp28
 70
     1
102
RTVSPost2010Prop29
280
     1
102
RTVSPost2010PropOp29
 70
     1
102
RTVSPost2010Prop30
280
     1
102
RTVSPost2010PropOp30
 70
     1
102
RTVSPost2010Prop31
280
     0
102
RTVSPost2010PropOp31
 70
     1
102
RTVSPost2010Prop32
280
     0
102
RTVSPost2010PropOp32
 70
     1
102
RTVSPost2010Prop33
280
     0
102
RTVSPost2010PropOp33
 70
     1
102
RTVSPost2010Prop34
280
     0
102
RTVSPost2010PropOp34
 70
     1
102
RTVSPost2010Prop35
280
     0
102
RTVSPost2010PropOp35
 70
     1
102
RTVSPost2010Prop36
280
     0
102
RTVSPost2010PropOp36
 70
     1
102
RTVSPost2010Prop37
 90
       50
102
RTVSPost2010PropOp37
 70
     1
102
RTVSPost2010Prop38
140
0.0
102
RTVSPost2010PropOp38
 70
     1
102
RTVSPost2010Prop39
140
1.0
102
RTVSPost2010PropOp39
 70
     1
102
RTVSPost2010Prop40
 90
        0
102
RTVSPost2010PropOp40
 70
     1
102
RTVSPost2010Prop41ColorIndex
 90
       18
102
RTVSPost2010Prop41ColorRGB
 90
        0
102
RTVSPost2010PropOp41
 70
     1
102
RTVSPost2010Prop42
 90
       50
102
RTVSPost2010PropOp42
 70
     1
102
RTVSPost2010Prop43
 90
        3
102
RTVSPost2010PropOp43
 70
     1
102
RTVSPost2010Prop44ColorIndex
 90
        5
102
RTVSPost2010Prop44ColorRGB
 90
      255
102
RTVSPost2010PropOp44
 70
     1
102
RTVSPost2010Prop45
280
     0
102
RTVSPost2010PropOp45
 70
     1
102
RTVSPost2010Prop46
 90
       50
102
RTVSPost2010PropOp46
 70
     1
102
RTVSPost2010Prop47
 90
       50
102
RTVSPost2010PropOp47
 70
     1
102
RTVSPost2010Prop48
 90
       50
102
RTVSPost2010PropOp48
 70
     1
102
RTVSPost2010Prop49
280
     0
102
RTVSPost2010PropOp49
 70
     1
102
RTVSPost2010Prop50
 90
       50
102
RTVSPost2010PropOp50
 70
     1
102
RTVSPost2010Prop51ColorIndex
 90
      256
102
RTVSPost2010Prop51ColorRGB
 90
-16777216
102
RTVSPost2010PropOp51
 70
     0
102
RTVSPost2010Prop52
140
1.0
102
RTVSPost2010PropOp52
 70
     0
102
RTVSPost2010Prop53
 90
        2
102
RTVSPost2010PropOp53
 70
     1
102
RTVSPost2010Prop54
  1
strokes_ogs.tif
102
RTVSPost2010PropOp54
 70
     1
102
RTVSPost2010Prop55
280
     0
102
RTVSPost2010PropOp55
 70
     1
102
RTVSPost2010Prop56
140
1.0
102
RTVSPost2010PropOp56
 70
     1
102
RTVSPost2010Prop57
140
1.0
102
RTVSPost2010PropOp57
 70
     1
  0
XRECORD
  5
3B27
102
{ACAD_REACTORS
330
3B26
102
}
330
3B26
100
AcDbXrecord
280
     1
102
RTVSPropertyOp0
 70
     1
102
RTVSPropertyOp1
 70
     1
102
RTVSPropertyOp2
 70
     1
102
RTVSPropertyOp3
 70
     1
102
RTVSPropertyOp4
 70
     1
102
RTVSPropertyOp5
 70
     1
102
RTVSPropertyOp6
 70
     1
102
RTVSPropertyOp7
 70
     1
102
RTVSPropertyOp8
 70
     1
102
RTVSPropertyOp9
 70
     1
102
RTVSPropertyOp10
 70
     1
102
RTVSPropertyOp11
 70
     1
102
RTVSPropertyOp12
 70
     1
102
RTVSPropertyOp13
 70
     1
102
RTVSPropertyOp14
 70
     1
102
RTVSPropertyOp15
 70
     1
102
RTVSPropertyOp16
 70
     1
102
RTVSPropertyOp17
 70
     1
102
RTVSPropertyOp18
 70
     1
102
RTVSPropertyOp19
 70
     1
102
RTVSPropertyOp20
 70
     1
102
RTVSPropertyOp21
 70
     1
102
RTVSPropertyOp22
 70
     1
102
RTVSPropertyOp23
 70
     1
102
RTVSPropertyOp24
 70
     1
102
RTVSPropertyOp25
 70
     1
102
RTVSPropertyOp26
 70
     1
102
RTVSPropertyOp27
 70
     1
102
RTVSPropertyOp28
 70
     1
102
RTVSPropertyOp29
 70
     1
102
RTVSPropertyOp30
 70
     1
102
RTVSPropertyOp31
 70
     1
102
RTVSPropertyOp32
 70
     1
102
RTVSPropertyOp33
 70
     1
102
RTVSPropertyOp34
 70
     1
102
RTVSPropertyOp35
 70
     1
102
RTVSPropertyOp36
 70
     1
102
RTVSPropertyOp37
 70
     1
102
RTVSPropertyOp38
 70
     1
102
RTVSPropertyOp39
 70
     1
102
RTVSPropertyOp40
 70
     1
102
RTVSPropertyOp41
 70
     1
102
RTVSPropertyOp42
 70
     1
102
RTVSPropertyOp43
 70
     1
102
RTVSPropertyOp44
 70
     1
102
RTVSPropertyOp45
 70
     1
102
RTVSPropertyOp46
 70
     1
102
RTVSPropertyOp47
 70
     1
102
RTVSPropertyOp48
 70
     1
102
RTVSPropertyOp49
 70
     1
102
RTVSPropertyOp50
 70
     1
102
RTVSPropertyOp51
 70
     0
102
RTVSPropertyOp52
 70
     0
102
RTVSPropertyOp53
 70
     1
102
RTVSPropertyOp54
 70
     1
102
RTVSPropertyOp55
 70
     1
102
RTVSPropertyOp56
 70
     1
102
RTVSPropertyOp57
 70
     1
102
RTVSPost2010Prop28
280
     0
102
RTVSPost2010PropOp28
 70
     1
102
RTVSPost2010Prop29
280
     1
102
RTVSPost2010PropOp29
 70
     1
102
RTVSPost2010Prop30
280
     1
102
RTVSPost2010PropOp30
 70
     1
102
RTVSPost2010Prop31
280
     0
102
RTVSPost2010PropOp31
 70
     1
102
RTVSPost2010Prop32
280
     0
102
RTVSPost2010PropOp32
 70
     1
102
RTVSPost2010Prop33
280
     0
102
RTVSPost2010PropOp33
 70
     1
102
RTVSPost2010Prop34
280
     0
102
RTVSPost2010PropOp34
 70
     1
102
RTVSPost2010Prop35
280
     0
102
RTVSPost2010PropOp35
 70
     1
102
RTVSPost2010Prop36
280
     0
102
RTVSPost2010PropOp36
 70
     1
102
RTVSPost2010Prop37
 90
       50
102
RTVSPost2010PropOp37
 70
     1
102
RTVSPost2010Prop38
140
0.0
102
RTVSPost2010PropOp38
 70
     1
102
RTVSPost2010Prop39
140
1.0
102
RTVSPost2010PropOp39
 70
     1
102
RTVSPost2010Prop40
 90
        0
102
RTVSPost2010PropOp40
 70
     1
102
RTVSPost2010Prop41ColorIndex
 90
       18
102
RTVSPost2010Prop41ColorRGB
 90
        0
102
RTVSPost2010PropOp41
 70
     1
102
RTVSPost2010Prop42
 90
       50
102
RTVSPost2010PropOp42
 70
     1
102
RTVSPost2010Prop43
 90
        3
102
RTVSPost2010PropOp43
 70
     1
102
RTVSPost2010Prop44ColorIndex
 90
        5
102
RTVSPost2010Prop44ColorRGB
 90
      255
102
RTVSPost2010PropOp44
 70
     1
102
RTVSPost2010Prop45
280
     0
102
RTVSPost2010PropOp45
 70
     1
102
RTVSPost2010Prop46
 90
       50
102
RTVSPost2010PropOp46
 70
     1
102
RTVSPost2010Prop47
 90
       50
102
RTVSPost2010PropOp47
 70
     1
102
RTVSPost2010Prop48
 90
       50
102
RTVSPost2010PropOp48
 70
     1
102
RTVSPost2010Prop49
280
     0
102
RTVSPost2010PropOp49
 70
     1
102
RTVSPost2010Prop50
 90
       50
102
RTVSPost2010PropOp50
 70
     1
102
RTVSPost2010Prop51ColorIndex
 90
      256
102
RTVSPost2010Prop51ColorRGB
 90
-16777216
102
RTVSPost2010PropOp51
 70
     0
102
RTVSPost2010Prop52
140
1.0
102
RTVSPost2010PropOp52
 70
     0
102
RTVSPost2010Prop53
 90
        2
102
RTVSPost2010PropOp53
 70
     1
102
RTVSPost2010Prop54
  1
strokes_ogs.tif
102
RTVSPost2010PropOp54
 70
     1
102
RTVSPost2010Prop55
280
     0
102
RTVSPost2010PropOp55
 70
     1
102
RTVSPost2010Prop56
140
1.0
102
RTVSPost2010PropOp56
 70
     1
102
RTVSPost2010Prop57
140
1.0
102
RTVSPost2010PropOp57
 70
     1
  0
XRECORD
  5
3B37
102
{ACAD_REACTORS
330
3B36
102
}
330
3B36
100
AcDbXrecord
280
     1
102
RTVSPropertyOp0
 70
     0
102
RTVSPropertyOp1
 70
     0
102
RTVSPropertyOp2
 70
     0
102
RTVSPropertyOp3
 70
     0
102
RTVSPropertyOp4
 70
     0
102
RTVSPropertyOp5
 70
     0
102
RTVSPropertyOp6
 70
     0
102
RTVSPropertyOp7
 70
     0
102
RTVSPropertyOp8
 70
     0
102
RTVSPropertyOp9
 70
     0
102
RTVSPropertyOp10
 70
     0
102
RTVSPropertyOp11
 70
     0
102
RTVSPropertyOp12
 70
     0
102
RTVSPropertyOp13
 70
     0
102
RTVSPropertyOp14
 70
     2
102
RTVSPropertyOp15
 70
     0
102
RTVSPropertyOp16
 70
     0
102
RTVSPropertyOp17
 70
     0
102
RTVSPropertyOp18
 70
     0
102
RTVSPropertyOp19
 70
     0
102
RTVSPropertyOp20
 70
     0
102
RTVSPropertyOp21
 70
     0
102
RTVSPropertyOp22
 70
     0
102
RTVSPropertyOp23
 70
     0
102
RTVSPropertyOp24
 70
     0
102
RTVSPropertyOp25
 70
     0
102
RTVSPropertyOp26
 70
     0
102
RTVSPropertyOp27
 70
     0
102
RTVSPropertyOp28
 70
     0
102
RTVSPropertyOp29
 70
     0
102
RTVSPropertyOp30
 70
     0
102
RTVSPropertyOp31
 70
     0
102
RTVSPropertyOp32
 70
     0
102
RTVSPropertyOp33
 70
     0
102
RTVSPropertyOp34
 70
     0
102
RTVSPropertyOp35
 70
     0
102
RTVSPropertyOp36
 70
     0
102
RTVSPropertyOp37
 70
     0
102
RTVSPropertyOp38
 70
     0
102
RTVSPropertyOp39
 70
     0
102
RTVSPropertyOp40
 70
     0
102
RTVSPropertyOp41
 70
     0
102
RTVSPropertyOp42
 70
     0
102
RTVSPropertyOp43
 70
     0
102
RTVSPropertyOp44
 70
     0
102
RTVSPropertyOp45
 70
     0
102
RTVSPropertyOp46
 70
     0
102
RTVSPropertyOp47
 70
     0
102
RTVSPropertyOp48
 70
     0
102
RTVSPropertyOp49
 70
     0
102
RTVSPropertyOp50
 70
     0
102
RTVSPropertyOp51
 70
     0
102
RTVSPropertyOp52
 70
     0
102
RTVSPropertyOp53
 70
     0
102
RTVSPropertyOp54
 70
     0
102
RTVSPropertyOp55
 70
     0
102
RTVSPropertyOp56
 70
     0
102
RTVSPropertyOp57
 70
     0
102
RTVSPost2010Prop28
280
     0
102
RTVSPost2010PropOp28
 70
     0
102
RTVSPost2010Prop29
280
     1
102
RTVSPost2010PropOp29
 70
     0
102
RTVSPost2010Prop30
280
     1
102
RTVSPost2010PropOp30
 70
     0
102
RTVSPost2010Prop31
280
     0
102
RTVSPost2010PropOp31
 70
     0
102
RTVSPost2010Prop32
280
     0
102
RTVSPost2010PropOp32
 70
     0
102
RTVSPost2010Prop33
280
     0
102
RTVSPost2010PropOp33
 70
     0
102
RTVSPost2010Prop34
280
     0
102
RTVSPost2010PropOp34
 70
     0
102
RTVSPost2010Prop35
280
     0
102
RTVSPost2010PropOp35
 70
     0
102
RTVSPost2010Prop36
280
     0
102
RTVSPost2010PropOp36
 70
     0
102
RTVSPost2010Prop37
 90
       50
102
RTVSPost2010PropOp37
 70
     0
102
RTVSPost2010Prop38
140
0.0
102
RTVSPost2010PropOp38
 70
     0
102
RTVSPost2010Prop39
140
1.0
102
RTVSPost2010PropOp39
 70
     0
102
RTVSPost2010Prop40
 90
        0
102
RTVSPost2010PropOp40
 70
     0
102
RTVSPost2010Prop41ColorIndex
 90
       18
102
RTVSPost2010Prop41ColorRGB
 90
        0
102
RTVSPost2010PropOp41
 70
     0
102
RTVSPost2010Prop42
 90
       50
102
RTVSPost2010PropOp42
 70
     0
102
RTVSPost2010Prop43
 90
        3
102
RTVSPost2010PropOp43
 70
     0
102
RTVSPost2010Prop44ColorIndex
 90
        5
102
RTVSPost2010Prop44ColorRGB
 90
      255
102
RTVSPost2010PropOp44
 70
     0
102
RTVSPost2010Prop45
280
     0
102
RTVSPost2010PropOp45
 70
     0
102
RTVSPost2010Prop46
 90
       50
102
RTVSPost2010PropOp46
 70
     0
102
RTVSPost2010Prop47
 90
       50
102
RTVSPost2010PropOp47
 70
     0
102
RTVSPost2010Prop48
 90
       50
102
RTVSPost2010PropOp48
 70
     0
102
RTVSPost2010Prop49
280
     0
102
RTVSPost2010PropOp49
 70
     0
102
RTVSPost2010Prop50
 90
       50
102
RTVSPost2010PropOp50
 70
     0
102
RTVSPost2010Prop51ColorIndex
 90
      256
102
RTVSPost2010Prop51ColorRGB
 90
-16777216
102
RTVSPost2010PropOp51
 70
     0
102
RTVSPost2010Prop52
140
1.0
102
RTVSPost2010PropOp52
 70
     0
102
RTVSPost2010Prop53
 90
        2
102
RTVSPost2010PropOp53
 70
     0
102
RTVSPost2010Prop54
  1
strokes_ogs.tif
102
RTVSPost2010PropOp54
 70
     0
102
RTVSPost2010Prop55
280
     0
102
RTVSPost2010PropOp55
 70
     0
102
RTVSPost2010Prop56
140
1.0
102
RTVSPost2010PropOp56
 70
     0
102
RTVSPost2010Prop57
140
1.0
102
RTVSPost2010PropOp57
 70
     0
  0
XRECORD
  5
3B2F
102
{ACAD_REACTORS
330
3B2E
102
}
330
3B2E
100
AcDbXrecord
280
     1
102
RTVSPropertyOp0
 70
     1
102
RTVSPropertyOp1
 70
     1
102
RTVSPropertyOp2
 70
     1
102
RTVSPropertyOp3
 70
     1
102
RTVSPropertyOp4
 70
     1
102
RTVSPropertyOp5
 70
     1
102
RTVSPropertyOp6
 70
     1
102
RTVSPropertyOp7
 70
     1
102
RTVSPropertyOp8
 70
     1
102
RTVSPropertyOp9
 70
     1
102
RTVSPropertyOp10
 70
     1
102
RTVSPropertyOp11
 70
     1
102
RTVSPropertyOp12
 70
     1
102
RTVSPropertyOp13
 70
     1
102
RTVSPropertyOp14
 70
     1
102
RTVSPropertyOp15
 70
     1
102
RTVSPropertyOp16
 70
     1
102
RTVSPropertyOp17
 70
     1
102
RTVSPropertyOp18
 70
     1
102
RTVSPropertyOp19
 70
     1
102
RTVSPropertyOp20
 70
     1
102
RTVSPropertyOp21
 70
     1
102
RTVSPropertyOp22
 70
     1
102
RTVSPropertyOp23
 70
     1
102
RTVSPropertyOp24
 70
     1
102
RTVSPropertyOp25
 70
     1
102
RTVSPropertyOp26
 70
     1
102
RTVSPropertyOp27
 70
     1
102
RTVSPropertyOp28
 70
     1
102
RTVSPropertyOp29
 70
     1
102
RTVSPropertyOp30
 70
     1
102
RTVSPropertyOp31
 70
     1
102
RTVSPropertyOp32
 70
     1
102
RTVSPropertyOp33
 70
     1
102
RTVSPropertyOp34
 70
     1
102
RTVSPropertyOp35
 70
     1
102
RTVSPropertyOp36
 70
     1
102
RTVSPropertyOp37
 70
     1
102
RTVSPropertyOp38
 70
     1
102
RTVSPropertyOp39
 70
     1
102
RTVSPropertyOp40
 70
     1
102
RTVSPropertyOp41
 70
     1
102
RTVSPropertyOp42
 70
     1
102
RTVSPropertyOp43
 70
     1
102
RTVSPropertyOp44
 70
     1
102
RTVSPropertyOp45
 70
     1
102
RTVSPropertyOp46
 70
     1
102
RTVSPropertyOp47
 70
     1
102
RTVSPropertyOp48
 70
     1
102
RTVSPropertyOp49
 70
     1
102
RTVSPropertyOp50
 70
     1
102
RTVSPropertyOp51
 70
     0
102
RTVSPropertyOp52
 70
     0
102
RTVSPropertyOp53
 70
     1
102
RTVSPropertyOp54
 70
     1
102
RTVSPropertyOp55
 70
     1
102
RTVSPropertyOp56
 70
     1
102
RTVSPropertyOp57
 70
     1
102
RTVSPost2010Prop28
280
     0
102
RTVSPost2010PropOp28
 70
     1
102
RTVSPost2010Prop29
280
     1
102
RTVSPost2010PropOp29
 70
     1
102
RTVSPost2010Prop30
280
     1
102
RTVSPost2010PropOp30
 70
     1
102
RTVSPost2010Prop31
280
     0
102
RTVSPost2010PropOp31
 70
     1
102
RTVSPost2010Prop32
280
     0
102
RTVSPost2010PropOp32
 70
     1
102
RTVSPost2010Prop33
280
     0
102
RTVSPost2010PropOp33
 70
     1
102
RTVSPost2010Prop34
280
     0
102
RTVSPost2010PropOp34
 70
     1
102
RTVSPost2010Prop35
280
     0
102
RTVSPost2010PropOp35
 70
     1
102
RTVSPost2010Prop36
280
     0
102
RTVSPost2010PropOp36
 70
     1
102
RTVSPost2010Prop37
 90
       50
102
RTVSPost2010PropOp37
 70
     1
102
RTVSPost2010Prop38
140
0.0
102
RTVSPost2010PropOp38
 70
     1
102
RTVSPost2010Prop39
140
1.0
102
RTVSPost2010PropOp39
 70
     1
102
RTVSPost2010Prop40
 90
        0
102
RTVSPost2010PropOp40
 70
     1
102
RTVSPost2010Prop41ColorIndex
 90
       18
102
RTVSPost2010Prop41ColorRGB
 90
        0
102
RTVSPost2010PropOp41
 70
     1
102
RTVSPost2010Prop42
 90
       50
102
RTVSPost2010PropOp42
 70
     1
102
RTVSPost2010Prop43
 90
        3
102
RTVSPost2010PropOp43
 70
     1
102
RTVSPost2010Prop44ColorIndex
 90
        5
102
RTVSPost2010Prop44ColorRGB
 90
      255
102
RTVSPost2010PropOp44
 70
     1
102
RTVSPost2010Prop45
280
     0
102
RTVSPost2010PropOp45
 70
     1
102
RTVSPost2010Prop46
 90
       50
102
RTVSPost2010PropOp46
 70
     1
102
RTVSPost2010Prop47
 90
       50
102
RTVSPost2010PropOp47
 70
     1
102
RTVSPost2010Prop48
 90
       50
102
RTVSPost2010PropOp48
 70
     1
102
RTVSPost2010Prop49
280
     0
102
RTVSPost2010PropOp49
 70
     1
102
RTVSPost2010Prop50
 90
       50
102
RTVSPost2010PropOp50
 70
     1
102
RTVSPost2010Prop51ColorIndex
 90
      256
102
RTVSPost2010Prop51ColorRGB
 90
-16777216
102
RTVSPost2010PropOp51
 70
     0
102
RTVSPost2010Prop52
140
1.0
102
RTVSPost2010PropOp52
 70
     0
102
RTVSPost2010Prop53
 90
        2
102
RTVSPost2010PropOp53
 70
     1
102
RTVSPost2010Prop54
  1
strokes_ogs.tif
102
RTVSPost2010PropOp54
 70
     1
102
RTVSPost2010Prop55
280
     0
102
RTVSPost2010PropOp55
 70
     1
102
RTVSPost2010Prop56
140
1.0
102
RTVSPost2010PropOp56
 70
     1
102
RTVSPost2010Prop57
140
1.0
102
RTVSPost2010PropOp57
 70
     1
  0
XRECORD
  5
3B13
102
{ACAD_REACTORS
330
3B12
102
}
330
3B12
100
AcDbXrecord
280
     1
102
RTVSPropertyOp0
 70
     1
102
RTVSPropertyOp1
 70
     1
102
RTVSPropertyOp2
 70
     1
102
RTVSPropertyOp3
 70
     1
102
RTVSPropertyOp4
 70
     1
102
RTVSPropertyOp5
 70
     1
102
RTVSPropertyOp6
 70
     1
102
RTVSPropertyOp7
 70
     1
102
RTVSPropertyOp8
 70
     1
102
RTVSPropertyOp9
 70
     1
102
RTVSPropertyOp10
 70
     1
102
RTVSPropertyOp11
 70
     1
102
RTVSPropertyOp12
 70
     1
102
RTVSPropertyOp13
 70
     1
102
RTVSPropertyOp14
 70
     1
102
RTVSPropertyOp15
 70
     1
102
RTVSPropertyOp16
 70
     1
102
RTVSPropertyOp17
 70
     1
102
RTVSPropertyOp18
 70
     1
102
RTVSPropertyOp19
 70
     1
102
RTVSPropertyOp20
 70
     1
102
RTVSPropertyOp21
 70
     1
102
RTVSPropertyOp22
 70
     1
102
RTVSPropertyOp23
 70
     1
102
RTVSPropertyOp24
 70
     1
102
RTVSPropertyOp25
 70
     1
102
RTVSPropertyOp26
 70
     1
102
RTVSPropertyOp27
 70
     1
102
RTVSPropertyOp28
 70
     1
102
RTVSPropertyOp29
 70
     1
102
RTVSPropertyOp30
 70
     1
102
RTVSPropertyOp31
 70
     1
102
RTVSPropertyOp32
 70
     1
102
RTVSPropertyOp33
 70
     1
102
RTVSPropertyOp34
 70
     1
102
RTVSPropertyOp35
 70
     1
102
RTVSPropertyOp36
 70
     1
102
RTVSPropertyOp37
 70
     1
102
RTVSPropertyOp38
 70
     1
102
RTVSPropertyOp39
 70
     1
102
RTVSPropertyOp40
 70
     1
102
RTVSPropertyOp41
 70
     1
102
RTVSPropertyOp42
 70
     1
102
RTVSPropertyOp43
 70
     1
102
RTVSPropertyOp44
 70
     1
102
RTVSPropertyOp45
 70
     1
102
RTVSPropertyOp46
 70
     1
102
RTVSPropertyOp47
 70
     1
102
RTVSPropertyOp48
 70
     1
102
RTVSPropertyOp49
 70
     1
102
RTVSPropertyOp50
 70
     1
102
RTVSPropertyOp51
 70
     0
102
RTVSPropertyOp52
 70
     0
102
RTVSPropertyOp53
 70
     1
102
RTVSPropertyOp54
 70
     1
102
RTVSPropertyOp55
 70
     1
102
RTVSPropertyOp56
 70
     1
102
RTVSPropertyOp57
 70
     1
102
RTVSPost2010Prop28
280
     0
102
RTVSPost2010PropOp28
 70
     1
102
RTVSPost2010Prop29
280
     1
102
RTVSPost2010PropOp29
 70
     1
102
RTVSPost2010Prop30
280
     1
102
RTVSPost2010PropOp30
 70
     1
102
RTVSPost2010Prop31
280
     0
102
RTVSPost2010PropOp31
 70
     1
102
RTVSPost2010Prop32
280
     0
102
RTVSPost2010PropOp32
 70
     1
102
RTVSPost2010Prop33
280
     0
102
RTVSPost2010PropOp33
 70
     1
102
RTVSPost2010Prop34
280
     0
102
RTVSPost2010PropOp34
 70
     1
102
RTVSPost2010Prop35
280
     0
102
RTVSPost2010PropOp35
 70
     1
102
RTVSPost2010Prop36
280
     0
102
RTVSPost2010PropOp36
 70
     1
102
RTVSPost2010Prop37
 90
       50
102
RTVSPost2010PropOp37
 70
     1
102
RTVSPost2010Prop38
140
0.0
102
RTVSPost2010PropOp38
 70
     1
102
RTVSPost2010Prop39
140
1.0
102
RTVSPost2010PropOp39
 70
     1
102
RTVSPost2010Prop40
 90
        0
102
RTVSPost2010PropOp40
 70
     1
102
RTVSPost2010Prop41ColorIndex
 90
       18
102
RTVSPost2010Prop41ColorRGB
 90
        0
102
RTVSPost2010PropOp41
 70
     1
102
RTVSPost2010Prop42
 90
       50
102
RTVSPost2010PropOp42
 70
     1
102
RTVSPost2010Prop43
 90
        3
102
RTVSPost2010PropOp43
 70
     1
102
RTVSPost2010Prop44ColorIndex
 90
        5
102
RTVSPost2010Prop44ColorRGB
 90
      255
102
RTVSPost2010PropOp44
 70
     1
102
RTVSPost2010Prop45
280
     0
102
RTVSPost2010PropOp45
 70
     1
102
RTVSPost2010Prop46
 90
       50
102
RTVSPost2010PropOp46
 70
     1
102
RTVSPost2010Prop47
 90
       50
102
RTVSPost2010PropOp47
 70
     1
102
RTVSPost2010Prop48
 90
       50
102
RTVSPost2010PropOp48
 70
     1
102
RTVSPost2010Prop49
280
     0
102
RTVSPost2010PropOp49
 70
     1
102
RTVSPost2010Prop50
 90
       50
102
RTVSPost2010PropOp50
 70
     1
102
RTVSPost2010Prop51ColorIndex
 90
      256
102
RTVSPost2010Prop51ColorRGB
 90
-16777216
102
RTVSPost2010PropOp51
 70
     0
102
RTVSPost2010Prop52
140
1.0
102
RTVSPost2010PropOp52
 70
     0
102
RTVSPost2010Prop53
 90
        2
102
RTVSPost2010PropOp53
 70
     1
102
RTVSPost2010Prop54
  1
strokes_ogs.tif
102
RTVSPost2010PropOp54
 70
     1
102
RTVSPost2010Prop55
280
     0
102
RTVSPost2010PropOp55
 70
     1
102
RTVSPost2010Prop56
140
1.0
102
RTVSPost2010PropOp56
 70
     1
102
RTVSPost2010Prop57
140
1.0
102
RTVSPost2010PropOp57
 70
     1
  0
XRECORD
  5
3B15
102
{ACAD_REACTORS
330
3B14
102
}
330
3B14
100
AcDbXrecord
280
     1
102
RTVSPropertyOp0
 70
     1
102
RTVSPropertyOp1
 70
     1
102
RTVSPropertyOp2
 70
     1
102
RTVSPropertyOp3
 70
     1
102
RTVSPropertyOp4
 70
     1
102
RTVSPropertyOp5
 70
     1
102
RTVSPropertyOp6
 70
     1
102
RTVSPropertyOp7
 70
     1
102
RTVSPropertyOp8
 70
     1
102
RTVSPropertyOp9
 70
     1
102
RTVSPropertyOp10
 70
     1
102
RTVSPropertyOp11
 70
     1
102
RTVSPropertyOp12
 70
     1
102
RTVSPropertyOp13
 70
     1
102
RTVSPropertyOp14
 70
     1
102
RTVSPropertyOp15
 70
     1
102
RTVSPropertyOp16
 70
     1
102
RTVSPropertyOp17
 70
     1
102
RTVSPropertyOp18
 70
     1
102
RTVSPropertyOp19
 70
     1
102
RTVSPropertyOp20
 70
     1
102
RTVSPropertyOp21
 70
     1
102
RTVSPropertyOp22
 70
     1
102
RTVSPropertyOp23
 70
     1
102
RTVSPropertyOp24
 70
     1
102
RTVSPropertyOp25
 70
     1
102
RTVSPropertyOp26
 70
     1
102
RTVSPropertyOp27
 70
     1
102
RTVSPropertyOp28
 70
     1
102
RTVSPropertyOp29
 70
     1
102
RTVSPropertyOp30
 70
     1
102
RTVSPropertyOp31
 70
     1
102
RTVSPropertyOp32
 70
     1
102
RTVSPropertyOp33
 70
     1
102
RTVSPropertyOp34
 70
     1
102
RTVSPropertyOp35
 70
     1
102
RTVSPropertyOp36
 70
     1
102
RTVSPropertyOp37
 70
     1
102
RTVSPropertyOp38
 70
     1
102
RTVSPropertyOp39
 70
     1
102
RTVSPropertyOp40
 70
     1
102
RTVSPropertyOp41
 70
     1
102
RTVSPropertyOp42
 70
     1
102
RTVSPropertyOp43
 70
     1
102
RTVSPropertyOp44
 70
     1
102
RTVSPropertyOp45
 70
     1
102
RTVSPropertyOp46
 70
     1
102
RTVSPropertyOp47
 70
     1
102
RTVSPropertyOp48
 70
     1
102
RTVSPropertyOp49
 70
     1
102
RTVSPropertyOp50
 70
     1
102
RTVSPropertyOp51
 70
     0
102
RTVSPropertyOp52
 70
     0
102
RTVSPropertyOp53
 70
     1
102
RTVSPropertyOp54
 70
     1
102
RTVSPropertyOp55
 70
     1
102
RTVSPropertyOp56
 70
     1
102
RTVSPropertyOp57
 70
     1
102
RTVSPost2010Prop28
280
     0
102
RTVSPost2010PropOp28
 70
     1
102
RTVSPost2010Prop29
280
     1
102
RTVSPost2010PropOp29
 70
     1
102
RTVSPost2010Prop30
280
     1
102
RTVSPost2010PropOp30
 70
     1
102
RTVSPost2010Prop31
280
     0
102
RTVSPost2010PropOp31
 70
     1
102
RTVSPost2010Prop32
280
     0
102
RTVSPost2010PropOp32
 70
     1
102
RTVSPost2010Prop33
280
     0
102
RTVSPost2010PropOp33
 70
     1
102
RTVSPost2010Prop34
280
     0
102
RTVSPost2010PropOp34
 70
     1
102
RTVSPost2010Prop35
280
     0
102
RTVSPost2010PropOp35
 70
     1
102
RTVSPost2010Prop36
280
     0
102
RTVSPost2010PropOp36
 70
     1
102
RTVSPost2010Prop37
 90
       50
102
RTVSPost2010PropOp37
 70
     1
102
RTVSPost2010Prop38
140
0.0
102
RTVSPost2010PropOp38
 70
     1
102
RTVSPost2010Prop39
140
1.0
102
RTVSPost2010PropOp39
 70
     1
102
RTVSPost2010Prop40
 90
        0
102
RTVSPost2010PropOp40
 70
     1
102
RTVSPost2010Prop41ColorIndex
 90
       18
102
RTVSPost2010Prop41ColorRGB
 90
        0
102
RTVSPost2010PropOp41
 70
     1
102
RTVSPost2010Prop42
 90
       50
102
RTVSPost2010PropOp42
 70
     1
102
RTVSPost2010Prop43
 90
        3
102
RTVSPost2010PropOp43
 70
     1
102
RTVSPost2010Prop44ColorIndex
 90
        5
102
RTVSPost2010Prop44ColorRGB
 90
      255
102
RTVSPost2010PropOp44
 70
     1
102
RTVSPost2010Prop45
280
     0
102
RTVSPost2010PropOp45
 70
     1
102
RTVSPost2010Prop46
 90
       50
102
RTVSPost2010PropOp46
 70
     1
102
RTVSPost2010Prop47
 90
       50
102
RTVSPost2010PropOp47
 70
     1
102
RTVSPost2010Prop48
 90
       50
102
RTVSPost2010PropOp48
 70
     1
102
RTVSPost2010Prop49
280
     0
102
RTVSPost2010PropOp49
 70
     1
102
RTVSPost2010Prop50
 90
       50
102
RTVSPost2010PropOp50
 70
     1
102
RTVSPost2010Prop51ColorIndex
 90
      256
102
RTVSPost2010Prop51ColorRGB
 90
-16777216
102
RTVSPost2010PropOp51
 70
     0
102
RTVSPost2010Prop52
140
1.0
102
RTVSPost2010PropOp52
 70
     0
102
RTVSPost2010Prop53
 90
        2
102
RTVSPost2010PropOp53
 70
     1
102
RTVSPost2010Prop54
  1
strokes_ogs.tif
102
RTVSPost2010PropOp54
 70
     1
102
RTVSPost2010Prop55
280
     0
102
RTVSPost2010PropOp55
 70
     1
102
RTVSPost2010Prop56
140
1.0
102
RTVSPost2010PropOp56
 70
     1
102
RTVSPost2010Prop57
140
1.0
102
RTVSPost2010PropOp57
 70
     1
  0
XRECORD
  5
3B17
102
{ACAD_REACTORS
330
3B16
102
}
330
3B16
100
AcDbXrecord
280
     1
102
RTVSPropertyOp0
 70
     1
102
RTVSPropertyOp1
 70
     1
102
RTVSPropertyOp2
 70
     1
102
RTVSPropertyOp3
 70
     1
102
RTVSPropertyOp4
 70
     1
102
RTVSPropertyOp5
 70
     1
102
RTVSPropertyOp6
 70
     1
102
RTVSPropertyOp7
 70
     1
102
RTVSPropertyOp8
 70
     1
102
RTVSPropertyOp9
 70
     1
102
RTVSPropertyOp10
 70
     1
102
RTVSPropertyOp11
 70
     1
102
RTVSPropertyOp12
 70
     1
102
RTVSPropertyOp13
 70
     1
102
RTVSPropertyOp14
 70
     1
102
RTVSPropertyOp15
 70
     1
102
RTVSPropertyOp16
 70
     1
102
RTVSPropertyOp17
 70
     1
102
RTVSPropertyOp18
 70
     1
102
RTVSPropertyOp19
 70
     1
102
RTVSPropertyOp20
 70
     1
102
RTVSPropertyOp21
 70
     1
102
RTVSPropertyOp22
 70
     1
102
RTVSPropertyOp23
 70
     1
102
RTVSPropertyOp24
 70
     1
102
RTVSPropertyOp25
 70
     1
102
RTVSPropertyOp26
 70
     1
102
RTVSPropertyOp27
 70
     1
102
RTVSPropertyOp28
 70
     1
102
RTVSPropertyOp29
 70
     1
102
RTVSPropertyOp30
 70
     1
102
RTVSPropertyOp31
 70
     1
102
RTVSPropertyOp32
 70
     1
102
RTVSPropertyOp33
 70
     1
102
RTVSPropertyOp34
 70
     1
102
RTVSPropertyOp35
 70
     1
102
RTVSPropertyOp36
 70
     1
102
RTVSPropertyOp37
 70
     1
102
RTVSPropertyOp38
 70
     1
102
RTVSPropertyOp39
 70
     1
102
RTVSPropertyOp40
 70
     1
102
RTVSPropertyOp41
 70
     1
102
RTVSPropertyOp42
 70
     1
102
RTVSPropertyOp43
 70
     1
102
RTVSPropertyOp44
 70
     1
102
RTVSPropertyOp45
 70
     1
102
RTVSPropertyOp46
 70
     1
102
RTVSPropertyOp47
 70
     1
102
RTVSPropertyOp48
 70
     1
102
RTVSPropertyOp49
 70
     1
102
RTVSPropertyOp50
 70
     1
102
RTVSPropertyOp51
 70
     0
102
RTVSPropertyOp52
 70
     0
102
RTVSPropertyOp53
 70
     1
102
RTVSPropertyOp54
 70
     1
102
RTVSPropertyOp55
 70
     1
102
RTVSPropertyOp56
 70
     1
102
RTVSPropertyOp57
 70
     1
102
RTVSPost2010Prop28
280
     0
102
RTVSPost2010PropOp28
 70
     1
102
RTVSPost2010Prop29
280
     1
102
RTVSPost2010PropOp29
 70
     1
102
RTVSPost2010Prop30
280
     1
102
RTVSPost2010PropOp30
 70
     1
102
RTVSPost2010Prop31
280
     0
102
RTVSPost2010PropOp31
 70
     1
102
RTVSPost2010Prop32
280
     0
102
RTVSPost2010PropOp32
 70
     1
102
RTVSPost2010Prop33
280
     0
102
RTVSPost2010PropOp33
 70
     1
102
RTVSPost2010Prop34
280
     0
102
RTVSPost2010PropOp34
 70
     1
102
RTVSPost2010Prop35
280
     0
102
RTVSPost2010PropOp35
 70
     1
102
RTVSPost2010Prop36
280
     0
102
RTVSPost2010PropOp36
 70
     1
102
RTVSPost2010Prop37
 90
       50
102
RTVSPost2010PropOp37
 70
     1
102
RTVSPost2010Prop38
140
0.0
102
RTVSPost2010PropOp38
 70
     1
102
RTVSPost2010Prop39
140
1.0
102
RTVSPost2010PropOp39
 70
     1
102
RTVSPost2010Prop40
 90
        0
102
RTVSPost2010PropOp40
 70
     1
102
RTVSPost2010Prop41ColorIndex
 90
       18
102
RTVSPost2010Prop41ColorRGB
 90
        0
102
RTVSPost2010PropOp41
 70
     1
102
RTVSPost2010Prop42
 90
       50
102
RTVSPost2010PropOp42
 70
     1
102
RTVSPost2010Prop43
 90
        3
102
RTVSPost2010PropOp43
 70
     1
102
RTVSPost2010Prop44ColorIndex
 90
        5
102
RTVSPost2010Prop44ColorRGB
 90
      255
102
RTVSPost2010PropOp44
 70
     1
102
RTVSPost2010Prop45
280
     0
102
RTVSPost2010PropOp45
 70
     1
102
RTVSPost2010Prop46
 90
       50
102
RTVSPost2010PropOp46
 70
     1
102
RTVSPost2010Prop47
 90
       50
102
RTVSPost2010PropOp47
 70
     1
102
RTVSPost2010Prop48
 90
       50
102
RTVSPost2010PropOp48
 70
     1
102
RTVSPost2010Prop49
280
     0
102
RTVSPost2010PropOp49
 70
     1
102
RTVSPost2010Prop50
 90
       50
102
RTVSPost2010PropOp50
 70
     1
102
RTVSPost2010Prop51ColorIndex
 90
      256
102
RTVSPost2010Prop51ColorRGB
 90
-16777216
102
RTVSPost2010PropOp51
 70
     0
102
RTVSPost2010Prop52
140
1.0
102
RTVSPost2010PropOp52
 70
     0
102
RTVSPost2010Prop53
 90
        2
102
RTVSPost2010PropOp53
 70
     1
102
RTVSPost2010Prop54
  1
strokes_ogs.tif
102
RTVSPost2010PropOp54
 70
     1
102
RTVSPost2010Prop55
280
     0
102
RTVSPost2010PropOp55
 70
     1
102
RTVSPost2010Prop56
140
1.0
102
RTVSPost2010PropOp56
 70
     1
102
RTVSPost2010Prop57
140
1.0
102
RTVSPost2010PropOp57
 70
     1
  0
XRECORD
  5
3B19
102
{ACAD_REACTORS
330
3B18
102
}
330
3B18
100
AcDbXrecord
280
     1
102
RTVSPropertyOp0
 70
     1
102
RTVSPropertyOp1
 70
     1
102
RTVSPropertyOp2
 70
     1
102
RTVSPropertyOp3
 70
     1
102
RTVSPropertyOp4
 70
     1
102
RTVSPropertyOp5
 70
     1
102
RTVSPropertyOp6
 70
     1
102
RTVSPropertyOp7
 70
     1
102
RTVSPropertyOp8
 70
     1
102
RTVSPropertyOp9
 70
     1
102
RTVSPropertyOp10
 70
     1
102
RTVSPropertyOp11
 70
     1
102
RTVSPropertyOp12
 70
     1
102
RTVSPropertyOp13
 70
     1
102
RTVSPropertyOp14
 70
     1
102
RTVSPropertyOp15
 70
     1
102
RTVSPropertyOp16
 70
     1
102
RTVSPropertyOp17
 70
     1
102
RTVSPropertyOp18
 70
     1
102
RTVSPropertyOp19
 70
     1
102
RTVSPropertyOp20
 70
     1
102
RTVSPropertyOp21
 70
     1
102
RTVSPropertyOp22
 70
     1
102
RTVSPropertyOp23
 70
     1
102
RTVSPropertyOp24
 70
     1
102
RTVSPropertyOp25
 70
     1
102
RTVSPropertyOp26
 70
     1
102
RTVSPropertyOp27
 70
     1
102
RTVSPropertyOp28
 70
     1
102
RTVSPropertyOp29
 70
     1
102
RTVSPropertyOp30
 70
     1
102
RTVSPropertyOp31
 70
     1
102
RTVSPropertyOp32
 70
     1
102
RTVSPropertyOp33
 70
     1
102
RTVSPropertyOp34
 70
     1
102
RTVSPropertyOp35
 70
     1
102
RTVSPropertyOp36
 70
     1
102
RTVSPropertyOp37
 70
     1
102
RTVSPropertyOp38
 70
     1
102
RTVSPropertyOp39
 70
     1
102
RTVSPropertyOp40
 70
     1
102
RTVSPropertyOp41
 70
     1
102
RTVSPropertyOp42
 70
     1
102
RTVSPropertyOp43
 70
     1
102
RTVSPropertyOp44
 70
     1
102
RTVSPropertyOp45
 70
     1
102
RTVSPropertyOp46
 70
     1
102
RTVSPropertyOp47
 70
     1
102
RTVSPropertyOp48
 70
     1
102
RTVSPropertyOp49
 70
     1
102
RTVSPropertyOp50
 70
     1
102
RTVSPropertyOp51
 70
     0
102
RTVSPropertyOp52
 70
     0
102
RTVSPropertyOp53
 70
     1
102
RTVSPropertyOp54
 70
     1
102
RTVSPropertyOp55
 70
     1
102
RTVSPropertyOp56
 70
     1
102
RTVSPropertyOp57
 70
     1
102
RTVSPost2010Prop28
280
     0
102
RTVSPost2010PropOp28
 70
     1
102
RTVSPost2010Prop29
280
     1
102
RTVSPost2010PropOp29
 70
     1
102
RTVSPost2010Prop30
280
     1
102
RTVSPost2010PropOp30
 70
     1
102
RTVSPost2010Prop31
280
     0
102
RTVSPost2010PropOp31
 70
     1
102
RTVSPost2010Prop32
280
     0
102
RTVSPost2010PropOp32
 70
     1
102
RTVSPost2010Prop33
280
     0
102
RTVSPost2010PropOp33
 70
     1
102
RTVSPost2010Prop34
280
     0
102
RTVSPost2010PropOp34
 70
     1
102
RTVSPost2010Prop35
280
     0
102
RTVSPost2010PropOp35
 70
     1
102
RTVSPost2010Prop36
280
     0
102
RTVSPost2010PropOp36
 70
     1
102
RTVSPost2010Prop37
 90
       50
102
RTVSPost2010PropOp37
 70
     1
102
RTVSPost2010Prop38
140
0.0
102
RTVSPost2010PropOp38
 70
     1
102
RTVSPost2010Prop39
140
1.0
102
RTVSPost2010PropOp39
 70
     1
102
RTVSPost2010Prop40
 90
        0
102
RTVSPost2010PropOp40
 70
     1
102
RTVSPost2010Prop41ColorIndex
 90
       18
102
RTVSPost2010Prop41ColorRGB
 90
        0
102
RTVSPost2010PropOp41
 70
     1
102
RTVSPost2010Prop42
 90
       50
102
RTVSPost2010PropOp42
 70
     1
102
RTVSPost2010Prop43
 90
        3
102
RTVSPost2010PropOp43
 70
     1
102
RTVSPost2010Prop44ColorIndex
 90
        5
102
RTVSPost2010Prop44ColorRGB
 90
      255
102
RTVSPost2010PropOp44
 70
     1
102
RTVSPost2010Prop45
280
     0
102
RTVSPost2010PropOp45
 70
     1
102
RTVSPost2010Prop46
 90
       50
102
RTVSPost2010PropOp46
 70
     1
102
RTVSPost2010Prop47
 90
       50
102
RTVSPost2010PropOp47
 70
     1
102
RTVSPost2010Prop48
 90
       50
102
RTVSPost2010PropOp48
 70
     1
102
RTVSPost2010Prop49
280
     0
102
RTVSPost2010PropOp49
 70
     1
102
RTVSPost2010Prop50
 90
       50
102
RTVSPost2010PropOp50
 70
     1
102
RTVSPost2010Prop51ColorIndex
 90
      256
102
RTVSPost2010Prop51ColorRGB
 90
-16777216
102
RTVSPost2010PropOp51
 70
     0
102
RTVSPost2010Prop52
140
1.0
102
RTVSPost2010PropOp52
 70
     0
102
RTVSPost2010Prop53
 90
        2
102
RTVSPost2010PropOp53
 70
     1
102
RTVSPost2010Prop54
  1
strokes_ogs.tif
102
RTVSPost2010PropOp54
 70
     1
102
RTVSPost2010Prop55
280
     0
102
RTVSPost2010PropOp55
 70
     1
102
RTVSPost2010Prop56
140
1.0
102
RTVSPost2010PropOp56
 70
     1
102
RTVSPost2010Prop57
140
1.0
102
RTVSPost2010PropOp57
 70
     1
  0
XRECORD
  5
3B1F
102
{ACAD_REACTORS
330
3B1E
102
}
330
3B1E
100
AcDbXrecord
280
     1
102
RTVSPropertyOp0
 70
     1
102
RTVSPropertyOp1
 70
     1
102
RTVSPropertyOp2
 70
     1
102
RTVSPropertyOp3
 70
     1
102
RTVSPropertyOp4
 70
     1
102
RTVSPropertyOp5
 70
     1
102
RTVSPropertyOp6
 70
     1
102
RTVSPropertyOp7
 70
     1
102
RTVSPropertyOp8
 70
     1
102
RTVSPropertyOp9
 70
     1
102
RTVSPropertyOp10
 70
     1
102
RTVSPropertyOp11
 70
     1
102
RTVSPropertyOp12
 70
     1
102
RTVSPropertyOp13
 70
     1
102
RTVSPropertyOp14
 70
     1
102
RTVSPropertyOp15
 70
     1
102
RTVSPropertyOp16
 70
     1
102
RTVSPropertyOp17
 70
     1
102
RTVSPropertyOp18
 70
     1
102
RTVSPropertyOp19
 70
     1
102
RTVSPropertyOp20
 70
     1
102
RTVSPropertyOp21
 70
     1
102
RTVSPropertyOp22
 70
     1
102
RTVSPropertyOp23
 70
     1
102
RTVSPropertyOp24
 70
     1
102
RTVSPropertyOp25
 70
     1
102
RTVSPropertyOp26
 70
     1
102
RTVSPropertyOp27
 70
     1
102
RTVSPropertyOp28
 70
     1
102
RTVSPropertyOp29
 70
     1
102
RTVSPropertyOp30
 70
     1
102
RTVSPropertyOp31
 70
     1
102
RTVSPropertyOp32
 70
     1
102
RTVSPropertyOp33
 70
     1
102
RTVSPropertyOp34
 70
     1
102
RTVSPropertyOp35
 70
     1
102
RTVSPropertyOp36
 70
     1
102
RTVSPropertyOp37
 70
     1
102
RTVSPropertyOp38
 70
     1
102
RTVSPropertyOp39
 70
     1
102
RTVSPropertyOp40
 70
     1
102
RTVSPropertyOp41
 70
     1
102
RTVSPropertyOp42
 70
     1
102
RTVSPropertyOp43
 70
     1
102
RTVSPropertyOp44
 70
     1
102
RTVSPropertyOp45
 70
     1
102
RTVSPropertyOp46
 70
     1
102
RTVSPropertyOp47
 70
     1
102
RTVSPropertyOp48
 70
     1
102
RTVSPropertyOp49
 70
     1
102
RTVSPropertyOp50
 70
     1
102
RTVSPropertyOp51
 70
     0
102
RTVSPropertyOp52
 70
     0
102
RTVSPropertyOp53
 70
     1
102
RTVSPropertyOp54
 70
     1
102
RTVSPropertyOp55
 70
     1
102
RTVSPropertyOp56
 70
     1
102
RTVSPropertyOp57
 70
     1
102
RTVSPost2010Prop28
280
     0
102
RTVSPost2010PropOp28
 70
     1
102
RTVSPost2010Prop29
280
     1
102
RTVSPost2010PropOp29
 70
     1
102
RTVSPost2010Prop30
280
     1
102
RTVSPost2010PropOp30
 70
     1
102
RTVSPost2010Prop31
280
     0
102
RTVSPost2010PropOp31
 70
     1
102
RTVSPost2010Prop32
280
     0
102
RTVSPost2010PropOp32
 70
     1
102
RTVSPost2010Prop33
280
     0
102
RTVSPost2010PropOp33
 70
     1
102
RTVSPost2010Prop34
280
     0
102
RTVSPost2010PropOp34
 70
     1
102
RTVSPost2010Prop35
280
     0
102
RTVSPost2010PropOp35
 70
     1
102
RTVSPost2010Prop36
280
     0
102
RTVSPost2010PropOp36
 70
     1
102
RTVSPost2010Prop37
 90
       50
102
RTVSPost2010PropOp37
 70
     1
102
RTVSPost2010Prop38
140
0.0
102
RTVSPost2010PropOp38
 70
     1
102
RTVSPost2010Prop39
140
1.0
102
RTVSPost2010PropOp39
 70
     1
102
RTVSPost2010Prop40
 90
        0
102
RTVSPost2010PropOp40
 70
     1
102
RTVSPost2010Prop41ColorIndex
 90
       18
102
RTVSPost2010Prop41ColorRGB
 90
        0
102
RTVSPost2010PropOp41
 70
     1
102
RTVSPost2010Prop42
 90
       50
102
RTVSPost2010PropOp42
 70
     1
102
RTVSPost2010Prop43
 90
        3
102
RTVSPost2010PropOp43
 70
     1
102
RTVSPost2010Prop44ColorIndex
 90
        5
102
RTVSPost2010Prop44ColorRGB
 90
      255
102
RTVSPost2010PropOp44
 70
     1
102
RTVSPost2010Prop45
280
     0
102
RTVSPost2010PropOp45
 70
     1
102
RTVSPost2010Prop46
 90
       50
102
RTVSPost2010PropOp46
 70
     1
102
RTVSPost2010Prop47
 90
       50
102
RTVSPost2010PropOp47
 70
     1
102
RTVSPost2010Prop48
 90
       50
102
RTVSPost2010PropOp48
 70
     1
102
RTVSPost2010Prop49
280
     0
102
RTVSPost2010PropOp49
 70
     1
102
RTVSPost2010Prop50
 90
       50
102
RTVSPost2010PropOp50
 70
     1
102
RTVSPost2010Prop51ColorIndex
 90
      256
102
RTVSPost2010Prop51ColorRGB
 90
-16777216
102
RTVSPost2010PropOp51
 70
     0
102
RTVSPost2010Prop52
140
1.0
102
RTVSPost2010PropOp52
 70
     0
102
RTVSPost2010Prop53
 90
        2
102
RTVSPost2010PropOp53
 70
     1
102
RTVSPost2010Prop54
  1
strokes_ogs.tif
102
RTVSPost2010PropOp54
 70
     1
102
RTVSPost2010Prop55
280
     0
102
RTVSPost2010PropOp55
 70
     1
102
RTVSPost2010Prop56
140
1.0
102
RTVSPost2010PropOp56
 70
     1
102
RTVSPost2010Prop57
140
1.0
102
RTVSPost2010PropOp57
 70
     1
  0
XRECORD
  5
3B33
102
{ACAD_REACTORS
330
3B32
102
}
330
3B32
100
AcDbXrecord
280
     1
102
RTVSPropertyOp0
 70
     0
102
RTVSPropertyOp1
 70
     0
102
RTVSPropertyOp2
 70
     0
102
RTVSPropertyOp3
 70
     0
102
RTVSPropertyOp4
 70
     0
102
RTVSPropertyOp5
 70
     0
102
RTVSPropertyOp6
 70
     0
102
RTVSPropertyOp7
 70
     0
102
RTVSPropertyOp8
 70
     0
102
RTVSPropertyOp9
 70
     0
102
RTVSPropertyOp10
 70
     0
102
RTVSPropertyOp11
 70
     0
102
RTVSPropertyOp12
 70
     0
102
RTVSPropertyOp13
 70
     0
102
RTVSPropertyOp14
 70
     2
102
RTVSPropertyOp15
 70
     0
102
RTVSPropertyOp16
 70
     0
102
RTVSPropertyOp17
 70
     0
102
RTVSPropertyOp18
 70
     0
102
RTVSPropertyOp19
 70
     0
102
RTVSPropertyOp20
 70
     0
102
RTVSPropertyOp21
 70
     0
102
RTVSPropertyOp22
 70
     0
102
RTVSPropertyOp23
 70
     0
102
RTVSPropertyOp24
 70
     0
102
RTVSPropertyOp25
 70
     0
102
RTVSPropertyOp26
 70
     0
102
RTVSPropertyOp27
 70
     0
102
RTVSPropertyOp28
 70
     0
102
RTVSPropertyOp29
 70
     0
102
RTVSPropertyOp30
 70
     0
102
RTVSPropertyOp31
 70
     0
102
RTVSPropertyOp32
 70
     0
102
RTVSPropertyOp33
 70
     0
102
RTVSPropertyOp34
 70
     0
102
RTVSPropertyOp35
 70
     0
102
RTVSPropertyOp36
 70
     0
102
RTVSPropertyOp37
 70
     0
102
RTVSPropertyOp38
 70
     0
102
RTVSPropertyOp39
 70
     0
102
RTVSPropertyOp40
 70
     0
102
RTVSPropertyOp41
 70
     0
102
RTVSPropertyOp42
 70
     0
102
RTVSPropertyOp43
 70
     0
102
RTVSPropertyOp44
 70
     0
102
RTVSPropertyOp45
 70
     0
102
RTVSPropertyOp46
 70
     0
102
RTVSPropertyOp47
 70
     0
102
RTVSPropertyOp48
 70
     0
102
RTVSPropertyOp49
 70
     0
102
RTVSPropertyOp50
 70
     0
102
RTVSPropertyOp51
 70
     0
102
RTVSPropertyOp52
 70
     0
102
RTVSPropertyOp53
 70
     0
102
RTVSPropertyOp54
 70
     0
102
RTVSPropertyOp55
 70
     0
102
RTVSPropertyOp56
 70
     0
102
RTVSPropertyOp57
 70
     0
102
RTVSPost2010Prop28
280
     0
102
RTVSPost2010PropOp28
 70
     0
102
RTVSPost2010Prop29
280
     1
102
RTVSPost2010PropOp29
 70
     0
102
RTVSPost2010Prop30
280
     1
102
RTVSPost2010PropOp30
 70
     0
102
RTVSPost2010Prop31
280
     0
102
RTVSPost2010PropOp31
 70
     0
102
RTVSPost2010Prop32
280
     0
102
RTVSPost2010PropOp32
 70
     0
102
RTVSPost2010Prop33
280
     0
102
RTVSPost2010PropOp33
 70
     0
102
RTVSPost2010Prop34
280
     0
102
RTVSPost2010PropOp34
 70
     0
102
RTVSPost2010Prop35
280
     0
102
RTVSPost2010PropOp35
 70
     0
102
RTVSPost2010Prop36
280
     0
102
RTVSPost2010PropOp36
 70
     0
102
RTVSPost2010Prop37
 90
       50
102
RTVSPost2010PropOp37
 70
     0
102
RTVSPost2010Prop38
140
0.0
102
RTVSPost2010PropOp38
 70
     0
102
RTVSPost2010Prop39
140
1.0
102
RTVSPost2010PropOp39
 70
     0
102
RTVSPost2010Prop40
 90
        0
102
RTVSPost2010PropOp40
 70
     0
102
RTVSPost2010Prop41ColorIndex
 90
       18
102
RTVSPost2010Prop41ColorRGB
 90
        0
102
RTVSPost2010PropOp41
 70
     0
102
RTVSPost2010Prop42
 90
       50
102
RTVSPost2010PropOp42
 70
     0
102
RTVSPost2010Prop43
 90
        3
102
RTVSPost2010PropOp43
 70
     0
102
RTVSPost2010Prop44ColorIndex
 90
        5
102
RTVSPost2010Prop44ColorRGB
 90
      255
102
RTVSPost2010PropOp44
 70
     0
102
RTVSPost2010Prop45
280
     0
102
RTVSPost2010PropOp45
 70
     0
102
RTVSPost2010Prop46
 90
       50
102
RTVSPost2010PropOp46
 70
     0
102
RTVSPost2010Prop47
 90
       50
102
RTVSPost2010PropOp47
 70
     0
102
RTVSPost2010Prop48
 90
       50
102
RTVSPost2010PropOp48
 70
     0
102
RTVSPost2010Prop49
280
     0
102
RTVSPost2010PropOp49
 70
     0
102
RTVSPost2010Prop50
 90
       50
102
RTVSPost2010PropOp50
 70
     0
102
RTVSPost2010Prop51ColorIndex
 90
      256
102
RTVSPost2010Prop51ColorRGB
 90
-16777216
102
RTVSPost2010PropOp51
 70
     0
102
RTVSPost2010Prop52
140
1.0
102
RTVSPost2010PropOp52
 70
     0
102
RTVSPost2010Prop53
 90
        2
102
RTVSPost2010PropOp53
 70
     0
102
RTVSPost2010Prop54
  1
strokes_ogs.tif
102
RTVSPost2010PropOp54
 70
     0
102
RTVSPost2010Prop55
280
     0
102
RTVSPost2010PropOp55
 70
     0
102
RTVSPost2010Prop56
140
1.0
102
RTVSPost2010PropOp56
 70
     0
102
RTVSPost2010Prop57
140
1.0
102
RTVSPost2010PropOp57
 70
     0
  0
XRECORD
  5
3B2D
102
{ACAD_REACTORS
330
3B2C
102
}
330
3B2C
100
AcDbXrecord
280
     1
102
RTVSPropertyOp0
 70
     1
102
RTVSPropertyOp1
 70
     1
102
RTVSPropertyOp2
 70
     1
102
RTVSPropertyOp3
 70
     1
102
RTVSPropertyOp4
 70
     1
102
RTVSPropertyOp5
 70
     1
102
RTVSPropertyOp6
 70
     1
102
RTVSPropertyOp7
 70
     1
102
RTVSPropertyOp8
 70
     1
102
RTVSPropertyOp9
 70
     1
102
RTVSPropertyOp10
 70
     1
102
RTVSPropertyOp11
 70
     1
102
RTVSPropertyOp12
 70
     1
102
RTVSPropertyOp13
 70
     1
102
RTVSPropertyOp14
 70
     1
102
RTVSPropertyOp15
 70
     1
102
RTVSPropertyOp16
 70
     1
102
RTVSPropertyOp17
 70
     1
102
RTVSPropertyOp18
 70
     1
102
RTVSPropertyOp19
 70
     1
102
RTVSPropertyOp20
 70
     1
102
RTVSPropertyOp21
 70
     1
102
RTVSPropertyOp22
 70
     1
102
RTVSPropertyOp23
 70
     1
102
RTVSPropertyOp24
 70
     1
102
RTVSPropertyOp25
 70
     1
102
RTVSPropertyOp26
 70
     1
102
RTVSPropertyOp27
 70
     1
102
RTVSPropertyOp28
 70
     1
102
RTVSPropertyOp29
 70
     1
102
RTVSPropertyOp30
 70
     1
102
RTVSPropertyOp31
 70
     1
102
RTVSPropertyOp32
 70
     1
102
RTVSPropertyOp33
 70
     1
102
RTVSPropertyOp34
 70
     1
102
RTVSPropertyOp35
 70
     1
102
RTVSPropertyOp36
 70
     1
102
RTVSPropertyOp37
 70
     1
102
RTVSPropertyOp38
 70
     1
102
RTVSPropertyOp39
 70
     1
102
RTVSPropertyOp40
 70
     1
102
RTVSPropertyOp41
 70
     1
102
RTVSPropertyOp42
 70
     1
102
RTVSPropertyOp43
 70
     1
102
RTVSPropertyOp44
 70
     1
102
RTVSPropertyOp45
 70
     1
102
RTVSPropertyOp46
 70
     1
102
RTVSPropertyOp47
 70
     1
102
RTVSPropertyOp48
 70
     1
102
RTVSPropertyOp49
 70
     1
102
RTVSPropertyOp50
 70
     1
102
RTVSPropertyOp51
 70
     0
102
RTVSPropertyOp52
 70
     0
102
RTVSPropertyOp53
 70
     1
102
RTVSPropertyOp54
 70
     1
102
RTVSPropertyOp55
 70
     1
102
RTVSPropertyOp56
 70
     1
102
RTVSPropertyOp57
 70
     1
102
RTVSPost2010Prop28
280
     0
102
RTVSPost2010PropOp28
 70
     1
102
RTVSPost2010Prop29
280
     1
102
RTVSPost2010PropOp29
 70
     1
102
RTVSPost2010Prop30
280
     1
102
RTVSPost2010PropOp30
 70
     1
102
RTVSPost2010Prop31
280
     0
102
RTVSPost2010PropOp31
 70
     1
102
RTVSPost2010Prop32
280
     0
102
RTVSPost2010PropOp32
 70
     1
102
RTVSPost2010Prop33
280
     0
102
RTVSPost2010PropOp33
 70
     1
102
RTVSPost2010Prop34
280
     0
102
RTVSPost2010PropOp34
 70
     1
102
RTVSPost2010Prop35
280
     0
102
RTVSPost2010PropOp35
 70
     1
102
RTVSPost2010Prop36
280
     0
102
RTVSPost2010PropOp36
 70
     1
102
RTVSPost2010Prop37
 90
       50
102
RTVSPost2010PropOp37
 70
     1
102
RTVSPost2010Prop38
140
0.0
102
RTVSPost2010PropOp38
 70
     1
102
RTVSPost2010Prop39
140
1.0
102
RTVSPost2010PropOp39
 70
     1
102
RTVSPost2010Prop40
 90
        0
102
RTVSPost2010PropOp40
 70
     1
102
RTVSPost2010Prop41ColorIndex
 90
       18
102
RTVSPost2010Prop41ColorRGB
 90
        0
102
RTVSPost2010PropOp41
 70
     1
102
RTVSPost2010Prop42
 90
       50
102
RTVSPost2010PropOp42
 70
     1
102
RTVSPost2010Prop43
 90
        3
102
RTVSPost2010PropOp43
 70
     1
102
RTVSPost2010Prop44ColorIndex
 90
        5
102
RTVSPost2010Prop44ColorRGB
 90
      255
102
RTVSPost2010PropOp44
 70
     1
102
RTVSPost2010Prop45
280
     0
102
RTVSPost2010PropOp45
 70
     1
102
RTVSPost2010Prop46
 90
       50
102
RTVSPost2010PropOp46
 70
     1
102
RTVSPost2010Prop47
 90
       50
102
RTVSPost2010PropOp47
 70
     1
102
RTVSPost2010Prop48
 90
       50
102
RTVSPost2010PropOp48
 70
     1
102
RTVSPost2010Prop49
280
     0
102
RTVSPost2010PropOp49
 70
     1
102
RTVSPost2010Prop50
 90
       50
102
RTVSPost2010PropOp50
 70
     1
102
RTVSPost2010Prop51ColorIndex
 90
      256
102
RTVSPost2010Prop51ColorRGB
 90
-16777216
102
RTVSPost2010PropOp51
 70
     0
102
RTVSPost2010Prop52
140
1.0
102
RTVSPost2010PropOp52
 70
     0
102
RTVSPost2010Prop53
 90
        2
102
RTVSPost2010PropOp53
 70
     1
102
RTVSPost2010Prop54
  1
strokes_ogs.tif
102
RTVSPost2010PropOp54
 70
     1
102
RTVSPost2010Prop55
280
     0
102
RTVSPost2010PropOp55
 70
     1
102
RTVSPost2010Prop56
140
1.0
102
RTVSPost2010PropOp56
 70
     1
102
RTVSPost2010Prop57
140
1.0
102
RTVSPost2010PropOp57
 70
     1
  0
XRECORD
  5
3B35
102
{ACAD_REACTORS
330
3B34
102
}
330
3B34
100
AcDbXrecord
280
     1
102
RTVSPropertyOp0
 70
     0
102
RTVSPropertyOp1
 70
     0
102
RTVSPropertyOp2
 70
     0
102
RTVSPropertyOp3
 70
     0
102
RTVSPropertyOp4
 70
     0
102
RTVSPropertyOp5
 70
     0
102
RTVSPropertyOp6
 70
     0
102
RTVSPropertyOp7
 70
     0
102
RTVSPropertyOp8
 70
     0
102
RTVSPropertyOp9
 70
     0
102
RTVSPropertyOp10
 70
     0
102
RTVSPropertyOp11
 70
     0
102
RTVSPropertyOp12
 70
     0
102
RTVSPropertyOp13
 70
     0
102
RTVSPropertyOp14
 70
     2
102
RTVSPropertyOp15
 70
     0
102
RTVSPropertyOp16
 70
     0
102
RTVSPropertyOp17
 70
     0
102
RTVSPropertyOp18
 70
     0
102
RTVSPropertyOp19
 70
     0
102
RTVSPropertyOp20
 70
     0
102
RTVSPropertyOp21
 70
     0
102
RTVSPropertyOp22
 70
     0
102
RTVSPropertyOp23
 70
     0
102
RTVSPropertyOp24
 70
     0
102
RTVSPropertyOp25
 70
     0
102
RTVSPropertyOp26
 70
     0
102
RTVSPropertyOp27
 70
     0
102
RTVSPropertyOp28
 70
     0
102
RTVSPropertyOp29
 70
     0
102
RTVSPropertyOp30
 70
     0
102
RTVSPropertyOp31
 70
     0
102
RTVSPropertyOp32
 70
     0
102
RTVSPropertyOp33
 70
     0
102
RTVSPropertyOp34
 70
     0
102
RTVSPropertyOp35
 70
     0
102
RTVSPropertyOp36
 70
     0
102
RTVSPropertyOp37
 70
     0
102
RTVSPropertyOp38
 70
     0
102
RTVSPropertyOp39
 70
     0
102
RTVSPropertyOp40
 70
     0
102
RTVSPropertyOp41
 70
     0
102
RTVSPropertyOp42
 70
     0
102
RTVSPropertyOp43
 70
     0
102
RTVSPropertyOp44
 70
     0
102
RTVSPropertyOp45
 70
     0
102
RTVSPropertyOp46
 70
     0
102
RTVSPropertyOp47
 70
     0
102
RTVSPropertyOp48
 70
     0
102
RTVSPropertyOp49
 70
     0
102
RTVSPropertyOp50
 70
     0
102
RTVSPropertyOp51
 70
     0
102
RTVSPropertyOp52
 70
     0
102
RTVSPropertyOp53
 70
     0
102
RTVSPropertyOp54
 70
     0
102
RTVSPropertyOp55
 70
     0
102
RTVSPropertyOp56
 70
     0
102
RTVSPropertyOp57
 70
     0
102
RTVSPost2010Prop28
280
     0
102
RTVSPost2010PropOp28
 70
     0
102
RTVSPost2010Prop29
280
     1
102
RTVSPost2010PropOp29
 70
     0
102
RTVSPost2010Prop30
280
     1
102
RTVSPost2010PropOp30
 70
     0
102
RTVSPost2010Prop31
280
     0
102
RTVSPost2010PropOp31
 70
     0
102
RTVSPost2010Prop32
280
     0
102
RTVSPost2010PropOp32
 70
     0
102
RTVSPost2010Prop33
280
     0
102
RTVSPost2010PropOp33
 70
     0
102
RTVSPost2010Prop34
280
     0
102
RTVSPost2010PropOp34
 70
     0
102
RTVSPost2010Prop35
280
     0
102
RTVSPost2010PropOp35
 70
     0
102
RTVSPost2010Prop36
280
     0
102
RTVSPost2010PropOp36
 70
     0
102
RTVSPost2010Prop37
 90
       50
102
RTVSPost2010PropOp37
 70
     0
102
RTVSPost2010Prop38
140
0.0
102
RTVSPost2010PropOp38
 70
     0
102
RTVSPost2010Prop39
140
1.0
102
RTVSPost2010PropOp39
 70
     0
102
RTVSPost2010Prop40
 90
        0
102
RTVSPost2010PropOp40
 70
     0
102
RTVSPost2010Prop41ColorIndex
 90
       18
102
RTVSPost2010Prop41ColorRGB
 90
        0
102
RTVSPost2010PropOp41
 70
     0
102
RTVSPost2010Prop42
 90
       50
102
RTVSPost2010PropOp42
 70
     0
102
RTVSPost2010Prop43
 90
        3
102
RTVSPost2010PropOp43
 70
     0
102
RTVSPost2010Prop44ColorIndex
 90
        5
102
RTVSPost2010Prop44ColorRGB
 90
      255
102
RTVSPost2010PropOp44
 70
     0
102
RTVSPost2010Prop45
280
     0
102
RTVSPost2010PropOp45
 70
     0
102
RTVSPost2010Prop46
 90
       50
102
RTVSPost2010PropOp46
 70
     0
102
RTVSPost2010Prop47
 90
       50
102
RTVSPost2010PropOp47
 70
     0
102
RTVSPost2010Prop48
 90
       50
102
RTVSPost2010PropOp48
 70
     0
102
RTVSPost2010Prop49
280
     0
102
RTVSPost2010PropOp49
 70
     0
102
RTVSPost2010Prop50
 90
       50
102
RTVSPost2010PropOp50
 70
     0
102
RTVSPost2010Prop51ColorIndex
 90
      256
102
RTVSPost2010Prop51ColorRGB
 90
-16777216
102
RTVSPost2010PropOp51
 70
     0
102
RTVSPost2010Prop52
140
1.0
102
RTVSPost2010PropOp52
 70
     0
102
RTVSPost2010Prop53
 90
        2
102
RTVSPost2010PropOp53
 70
     0
102
RTVSPost2010Prop54
  1
strokes_ogs.tif
102
RTVSPost2010PropOp54
 70
     0
102
RTVSPost2010Prop55
280
     0
102
RTVSPost2010PropOp55
 70
     0
102
RTVSPost2010Prop56
140
1.0
102
RTVSPost2010PropOp56
 70
     0
102
RTVSPost2010Prop57
140
1.0
102
RTVSPost2010PropOp57
 70
     0
  0
XRECORD
  5
3B23
102
{ACAD_REACTORS
330
3B22
102
}
330
3B22
100
AcDbXrecord
280
     1
102
RTVSPropertyOp0
 70
     1
102
RTVSPropertyOp1
 70
     1
102
RTVSPropertyOp2
 70
     1
102
RTVSPropertyOp3
 70
     1
102
RTVSPropertyOp4
 70
     1
102
RTVSPropertyOp5
 70
     1
102
RTVSPropertyOp6
 70
     1
102
RTVSPropertyOp7
 70
     1
102
RTVSPropertyOp8
 70
     1
102
RTVSPropertyOp9
 70
     1
102
RTVSPropertyOp10
 70
     1
102
RTVSPropertyOp11
 70
     1
102
RTVSPropertyOp12
 70
     1
102
RTVSPropertyOp13
 70
     1
102
RTVSPropertyOp14
 70
     1
102
RTVSPropertyOp15
 70
     1
102
RTVSPropertyOp16
 70
     1
102
RTVSPropertyOp17
 70
     1
102
RTVSPropertyOp18
 70
     1
102
RTVSPropertyOp19
 70
     1
102
RTVSPropertyOp20
 70
     1
102
RTVSPropertyOp21
 70
     1
102
RTVSPropertyOp22
 70
     1
102
RTVSPropertyOp23
 70
     1
102
RTVSPropertyOp24
 70
     1
102
RTVSPropertyOp25
 70
     1
102
RTVSPropertyOp26
 70
     1
102
RTVSPropertyOp27
 70
     1
102
RTVSPropertyOp28
 70
     1
102
RTVSPropertyOp29
 70
     1
102
RTVSPropertyOp30
 70
     1
102
RTVSPropertyOp31
 70
     1
102
RTVSPropertyOp32
 70
     1
102
RTVSPropertyOp33
 70
     1
102
RTVSPropertyOp34
 70
     1
102
RTVSPropertyOp35
 70
     1
102
RTVSPropertyOp36
 70
     1
102
RTVSPropertyOp37
 70
     1
102
RTVSPropertyOp38
 70
     1
102
RTVSPropertyOp39
 70
     1
102
RTVSPropertyOp40
 70
     1
102
RTVSPropertyOp41
 70
     1
102
RTVSPropertyOp42
 70
     1
102
RTVSPropertyOp43
 70
     1
102
RTVSPropertyOp44
 70
     1
102
RTVSPropertyOp45
 70
     1
102
RTVSPropertyOp46
 70
     1
102
RTVSPropertyOp47
 70
     1
102
RTVSPropertyOp48
 70
     1
102
RTVSPropertyOp49
 70
     1
102
RTVSPropertyOp50
 70
     1
102
RTVSPropertyOp51
 70
     0
102
RTVSPropertyOp52
 70
     0
102
RTVSPropertyOp53
 70
     1
102
RTVSPropertyOp54
 70
     1
102
RTVSPropertyOp55
 70
     1
102
RTVSPropertyOp56
 70
     1
102
RTVSPropertyOp57
 70
     1
102
RTVSPost2010Prop28
280
     0
102
RTVSPost2010PropOp28
 70
     1
102
RTVSPost2010Prop29
280
     1
102
RTVSPost2010PropOp29
 70
     1
102
RTVSPost2010Prop30
280
     1
102
RTVSPost2010PropOp30
 70
     1
102
RTVSPost2010Prop31
280
     0
102
RTVSPost2010PropOp31
 70
     1
102
RTVSPost2010Prop32
280
     0
102
RTVSPost2010PropOp32
 70
     1
102
RTVSPost2010Prop33
280
     0
102
RTVSPost2010PropOp33
 70
     1
102
RTVSPost2010Prop34
280
     0
102
RTVSPost2010PropOp34
 70
     1
102
RTVSPost2010Prop35
280
     0
102
RTVSPost2010PropOp35
 70
     1
102
RTVSPost2010Prop36
280
     0
102
RTVSPost2010PropOp36
 70
     1
102
RTVSPost2010Prop37
 90
       50
102
RTVSPost2010PropOp37
 70
     1
102
RTVSPost2010Prop38
140
0.0
102
RTVSPost2010PropOp38
 70
     1
102
RTVSPost2010Prop39
140
1.0
102
RTVSPost2010PropOp39
 70
     1
102
RTVSPost2010Prop40
 90
        0
102
RTVSPost2010PropOp40
 70
     1
102
RTVSPost2010Prop41ColorIndex
 90
       18
102
RTVSPost2010Prop41ColorRGB
 90
        0
102
RTVSPost2010PropOp41
 70
     1
102
RTVSPost2010Prop42
 90
       50
102
RTVSPost2010PropOp42
 70
     1
102
RTVSPost2010Prop43
 90
        3
102
RTVSPost2010PropOp43
 70
     1
102
RTVSPost2010Prop44ColorIndex
 90
        5
102
RTVSPost2010Prop44ColorRGB
 90
      255
102
RTVSPost2010PropOp44
 70
     1
102
RTVSPost2010Prop45
280
     0
102
RTVSPost2010PropOp45
 70
     1
102
RTVSPost2010Prop46
 90
       50
102
RTVSPost2010PropOp46
 70
     1
102
RTVSPost2010Prop47
 90
       50
102
RTVSPost2010PropOp47
 70
     1
102
RTVSPost2010Prop48
 90
       50
102
RTVSPost2010PropOp48
 70
     1
102
RTVSPost2010Prop49
280
     0
102
RTVSPost2010PropOp49
 70
     1
102
RTVSPost2010Prop50
 90
       50
102
RTVSPost2010PropOp50
 70
     1
102
RTVSPost2010Prop51ColorIndex
 90
      256
102
RTVSPost2010Prop51ColorRGB
 90
-16777216
102
RTVSPost2010PropOp51
 70
     0
102
RTVSPost2010Prop52
140
1.0
102
RTVSPost2010PropOp52
 70
     0
102
RTVSPost2010Prop53
 90
        2
102
RTVSPost2010PropOp53
 70
     1
102
RTVSPost2010Prop54
  1
strokes_ogs.tif
102
RTVSPost2010PropOp54
 70
     1
102
RTVSPost2010Prop55
280
     0
102
RTVSPost2010PropOp55
 70
     1
102
RTVSPost2010Prop56
140
1.0
102
RTVSPost2010PropOp56
 70
     1
102
RTVSPost2010Prop57
140
1.0
102
RTVSPost2010PropOp57
 70
     1
  0
XRECORD
  5
3B41
102
{ACAD_REACTORS
330
3B40
102
}
330
3B40
100
AcDbXrecord
280
     1
102
RTVSPropertyOp0
 70
     1
102
RTVSPropertyOp1
 70
     1
102
RTVSPropertyOp2
 70
     1
102
RTVSPropertyOp3
 70
     1
102
RTVSPropertyOp4
 70
     1
102
RTVSPropertyOp5
 70
     1
102
RTVSPropertyOp6
 70
     1
102
RTVSPropertyOp7
 70
     1
102
RTVSPropertyOp8
 70
     1
102
RTVSPropertyOp9
 70
     1
102
RTVSPropertyOp10
 70
     1
102
RTVSPropertyOp11
 70
     1
102
RTVSPropertyOp12
 70
     1
102
RTVSPropertyOp13
 70
     1
102
RTVSPropertyOp14
 70
     1
102
RTVSPropertyOp15
 70
     1
102
RTVSPropertyOp16
 70
     1
102
RTVSPropertyOp17
 70
     1
102
RTVSPropertyOp18
 70
     1
102
RTVSPropertyOp19
 70
     1
102
RTVSPropertyOp20
 70
     1
102
RTVSPropertyOp21
 70
     1
102
RTVSPropertyOp22
 70
     1
102
RTVSPropertyOp23
 70
     1
102
RTVSPropertyOp24
 70
     1
102
RTVSPropertyOp25
 70
     1
102
RTVSPropertyOp26
 70
     1
102
RTVSPropertyOp27
 70
     1
102
RTVSPropertyOp28
 70
     1
102
RTVSPropertyOp29
 70
     1
102
RTVSPropertyOp30
 70
     1
102
RTVSPropertyOp31
 70
     1
102
RTVSPropertyOp32
 70
     1
102
RTVSPropertyOp33
 70
     1
102
RTVSPropertyOp34
 70
     1
102
RTVSPropertyOp35
 70
     1
102
RTVSPropertyOp36
 70
     1
102
RTVSPropertyOp37
 70
     1
102
RTVSPropertyOp38
 70
     1
102
RTVSPropertyOp39
 70
     1
102
RTVSPropertyOp40
 70
     1
102
RTVSPropertyOp41
 70
     1
102
RTVSPropertyOp42
 70
     1
102
RTVSPropertyOp43
 70
     1
102
RTVSPropertyOp44
 70
     1
102
RTVSPropertyOp45
 70
     1
102
RTVSPropertyOp46
 70
     1
102
RTVSPropertyOp47
 70
     1
102
RTVSPropertyOp48
 70
     1
102
RTVSPropertyOp49
 70
     1
102
RTVSPropertyOp50
 70
     1
102
RTVSPropertyOp51
 70
     0
102
RTVSPropertyOp52
 70
     0
102
RTVSPropertyOp53
 70
     1
102
RTVSPropertyOp54
 70
     1
102
RTVSPropertyOp55
 70
     1
102
RTVSPropertyOp56
 70
     1
102
RTVSPropertyOp57
 70
     1
102
RTVSPost2010Prop28
280
     0
102
RTVSPost2010PropOp28
 70
     1
102
RTVSPost2010Prop29
280
     1
102
RTVSPost2010PropOp29
 70
     1
102
RTVSPost2010Prop30
280
     1
102
RTVSPost2010PropOp30
 70
     1
102
RTVSPost2010Prop31
280
     0
102
RTVSPost2010PropOp31
 70
     1
102
RTVSPost2010Prop32
280
     0
102
RTVSPost2010PropOp32
 70
     1
102
RTVSPost2010Prop33
280
     0
102
RTVSPost2010PropOp33
 70
     1
102
RTVSPost2010Prop34
280
     0
102
RTVSPost2010PropOp34
 70
     1
102
RTVSPost2010Prop35
280
     0
102
RTVSPost2010PropOp35
 70
     1
102
RTVSPost2010Prop36
280
     0
102
RTVSPost2010PropOp36
 70
     1
102
RTVSPost2010Prop37
 90
       50
102
RTVSPost2010PropOp37
 70
     1
102
RTVSPost2010Prop38
140
0.0
102
RTVSPost2010PropOp38
 70
     1
102
RTVSPost2010Prop39
140
1.0
102
RTVSPost2010PropOp39
 70
     1
102
RTVSPost2010Prop40
 90
        0
102
RTVSPost2010PropOp40
 70
     1
102
RTVSPost2010Prop41ColorIndex
 90
       18
102
RTVSPost2010Prop41ColorRGB
 90
        0
102
RTVSPost2010PropOp41
 70
     1
102
RTVSPost2010Prop42
 90
       50
102
RTVSPost2010PropOp42
 70
     1
102
RTVSPost2010Prop43
 90
        3
102
RTVSPost2010PropOp43
 70
     1
102
RTVSPost2010Prop44ColorIndex
 90
        5
102
RTVSPost2010Prop44ColorRGB
 90
      255
102
RTVSPost2010PropOp44
 70
     1
102
RTVSPost2010Prop45
280
     0
102
RTVSPost2010PropOp45
 70
     1
102
RTVSPost2010Prop46
 90
       50
102
RTVSPost2010PropOp46
 70
     1
102
RTVSPost2010Prop47
 90
       50
102
RTVSPost2010PropOp47
 70
     1
102
RTVSPost2010Prop48
 90
       50
102
RTVSPost2010PropOp48
 70
     1
102
RTVSPost2010Prop49
280
     0
102
RTVSPost2010PropOp49
 70
     1
102
RTVSPost2010Prop50
 90
       50
102
RTVSPost2010PropOp50
 70
     1
102
RTVSPost2010Prop51ColorIndex
 90
      256
102
RTVSPost2010Prop51ColorRGB
 90
-16777216
102
RTVSPost2010PropOp51
 70
     0
102
RTVSPost2010Prop52
140
1.0
102
RTVSPost2010PropOp52
 70
     0
102
RTVSPost2010Prop53
 90
        2
102
RTVSPost2010PropOp53
 70
     1
102
RTVSPost2010Prop54
  1
strokes_ogs.tif
102
RTVSPost2010PropOp54
 70
     1
102
RTVSPost2010Prop55
280
     0
102
RTVSPost2010PropOp55
 70
     1
102
RTVSPost2010Prop56
140
1.0
102
RTVSPost2010PropOp56
 70
     1
102
RTVSPost2010Prop57
140
1.0
102
RTVSPost2010PropOp57
 70
     1
  0
XRECORD
  5
3B3F
102
{ACAD_REACTORS
330
3B3E
102
}
330
3B3E
100
AcDbXrecord
280
     1
102
RTVSPropertyOp0
 70
     1
102
RTVSPropertyOp1
 70
     1
102
RTVSPropertyOp2
 70
     1
102
RTVSPropertyOp3
 70
     1
102
RTVSPropertyOp4
 70
     1
102
RTVSPropertyOp5
 70
     1
102
RTVSPropertyOp6
 70
     1
102
RTVSPropertyOp7
 70
     1
102
RTVSPropertyOp8
 70
     1
102
RTVSPropertyOp9
 70
     1
102
RTVSPropertyOp10
 70
     1
102
RTVSPropertyOp11
 70
     1
102
RTVSPropertyOp12
 70
     1
102
RTVSPropertyOp13
 70
     1
102
RTVSPropertyOp14
 70
     1
102
RTVSPropertyOp15
 70
     1
102
RTVSPropertyOp16
 70
     1
102
RTVSPropertyOp17
 70
     1
102
RTVSPropertyOp18
 70
     1
102
RTVSPropertyOp19
 70
     1
102
RTVSPropertyOp20
 70
     1
102
RTVSPropertyOp21
 70
     1
102
RTVSPropertyOp22
 70
     1
102
RTVSPropertyOp23
 70
     1
102
RTVSPropertyOp24
 70
     1
102
RTVSPropertyOp25
 70
     1
102
RTVSPropertyOp26
 70
     1
102
RTVSPropertyOp27
 70
     1
102
RTVSPropertyOp28
 70
     1
102
RTVSPropertyOp29
 70
     1
102
RTVSPropertyOp30
 70
     1
102
RTVSPropertyOp31
 70
     1
102
RTVSPropertyOp32
 70
     1
102
RTVSPropertyOp33
 70
     1
102
RTVSPropertyOp34
 70
     1
102
RTVSPropertyOp35
 70
     1
102
RTVSPropertyOp36
 70
     1
102
RTVSPropertyOp37
 70
     1
102
RTVSPropertyOp38
 70
     1
102
RTVSPropertyOp39
 70
     1
102
RTVSPropertyOp40
 70
     1
102
RTVSPropertyOp41
 70
     1
102
RTVSPropertyOp42
 70
     1
102
RTVSPropertyOp43
 70
     1
102
RTVSPropertyOp44
 70
     1
102
RTVSPropertyOp45
 70
     1
102
RTVSPropertyOp46
 70
     1
102
RTVSPropertyOp47
 70
     1
102
RTVSPropertyOp48
 70
     1
102
RTVSPropertyOp49
 70
     1
102
RTVSPropertyOp50
 70
     1
102
RTVSPropertyOp51
 70
     0
102
RTVSPropertyOp52
 70
     0
102
RTVSPropertyOp53
 70
     1
102
RTVSPropertyOp54
 70
     1
102
RTVSPropertyOp55
 70
     1
102
RTVSPropertyOp56
 70
     1
102
RTVSPropertyOp57
 70
     1
102
RTVSPost2010Prop28
280
     0
102
RTVSPost2010PropOp28
 70
     1
102
RTVSPost2010Prop29
280
     1
102
RTVSPost2010PropOp29
 70
     1
102
RTVSPost2010Prop30
280
     1
102
RTVSPost2010PropOp30
 70
     1
102
RTVSPost2010Prop31
280
     0
102
RTVSPost2010PropOp31
 70
     1
102
RTVSPost2010Prop32
280
     0
102
RTVSPost2010PropOp32
 70
     1
102
RTVSPost2010Prop33
280
     0
102
RTVSPost2010PropOp33
 70
     1
102
RTVSPost2010Prop34
280
     0
102
RTVSPost2010PropOp34
 70
     1
102
RTVSPost2010Prop35
280
     0
102
RTVSPost2010PropOp35
 70
     1
102
RTVSPost2010Prop36
280
     0
102
RTVSPost2010PropOp36
 70
     1
102
RTVSPost2010Prop37
 90
       50
102
RTVSPost2010PropOp37
 70
     1
102
RTVSPost2010Prop38
140
0.0
102
RTVSPost2010PropOp38
 70
     1
102
RTVSPost2010Prop39
140
1.0
102
RTVSPost2010PropOp39
 70
     1
102
RTVSPost2010Prop40
 90
        0
102
RTVSPost2010PropOp40
 70
     1
102
RTVSPost2010Prop41ColorIndex
 90
       18
102
RTVSPost2010Prop41ColorRGB
 90
        0
102
RTVSPost2010PropOp41
 70
     1
102
RTVSPost2010Prop42
 90
       50
102
RTVSPost2010PropOp42
 70
     1
102
RTVSPost2010Prop43
 90
        3
102
RTVSPost2010PropOp43
 70
     1
102
RTVSPost2010Prop44ColorIndex
 90
        5
102
RTVSPost2010Prop44ColorRGB
 90
      255
102
RTVSPost2010PropOp44
 70
     1
102
RTVSPost2010Prop45
280
     0
102
RTVSPost2010PropOp45
 70
     1
102
RTVSPost2010Prop46
 90
       50
102
RTVSPost2010PropOp46
 70
     1
102
RTVSPost2010Prop47
 90
       50
102
RTVSPost2010PropOp47
 70
     1
102
RTVSPost2010Prop48
 90
       50
102
RTVSPost2010PropOp48
 70
     1
102
RTVSPost2010Prop49
280
     0
102
RTVSPost2010PropOp49
 70
     1
102
RTVSPost2010Prop50
 90
       50
102
RTVSPost2010PropOp50
 70
     1
102
RTVSPost2010Prop51ColorIndex
 90
      256
102
RTVSPost2010Prop51ColorRGB
 90
-16777216
102
RTVSPost2010PropOp51
 70
     0
102
RTVSPost2010Prop52
140
1.0
102
RTVSPost2010PropOp52
 70
     0
102
RTVSPost2010Prop53
 90
        2
102
RTVSPost2010PropOp53
 70
     1
102
RTVSPost2010Prop54
  1
strokes_ogs.tif
102
RTVSPost2010PropOp54
 70
     1
102
RTVSPost2010Prop55
280
     0
102
RTVSPost2010PropOp55
 70
     1
102
RTVSPost2010Prop56
140
1.0
102
RTVSPost2010PropOp56
 70
     1
102
RTVSPost2010Prop57
140
1.0
102
RTVSPost2010PropOp57
 70
     1
  0
XRECORD
  5
3B39
102
{ACAD_REACTORS
330
3B38
102
}
330
3B38
100
AcDbXrecord
280
     1
102
RTVSPropertyOp0
 70
     1
102
RTVSPropertyOp1
 70
     1
102
RTVSPropertyOp2
 70
     1
102
RTVSPropertyOp3
 70
     1
102
RTVSPropertyOp4
 70
     1
102
RTVSPropertyOp5
 70
     1
102
RTVSPropertyOp6
 70
     1
102
RTVSPropertyOp7
 70
     1
102
RTVSPropertyOp8
 70
     1
102
RTVSPropertyOp9
 70
     1
102
RTVSPropertyOp10
 70
     1
102
RTVSPropertyOp11
 70
     1
102
RTVSPropertyOp12
 70
     1
102
RTVSPropertyOp13
 70
     1
102
RTVSPropertyOp14
 70
     1
102
RTVSPropertyOp15
 70
     1
102
RTVSPropertyOp16
 70
     1
102
RTVSPropertyOp17
 70
     1
102
RTVSPropertyOp18
 70
     1
102
RTVSPropertyOp19
 70
     1
102
RTVSPropertyOp20
 70
     1
102
RTVSPropertyOp21
 70
     1
102
RTVSPropertyOp22
 70
     1
102
RTVSPropertyOp23
 70
     1
102
RTVSPropertyOp24
 70
     1
102
RTVSPropertyOp25
 70
     1
102
RTVSPropertyOp26
 70
     1
102
RTVSPropertyOp27
 70
     1
102
RTVSPropertyOp28
 70
     1
102
RTVSPropertyOp29
 70
     1
102
RTVSPropertyOp30
 70
     1
102
RTVSPropertyOp31
 70
     1
102
RTVSPropertyOp32
 70
     1
102
RTVSPropertyOp33
 70
     1
102
RTVSPropertyOp34
 70
     1
102
RTVSPropertyOp35
 70
     1
102
RTVSPropertyOp36
 70
     1
102
RTVSPropertyOp37
 70
     1
102
RTVSPropertyOp38
 70
     1
102
RTVSPropertyOp39
 70
     1
102
RTVSPropertyOp40
 70
     1
102
RTVSPropertyOp41
 70
     1
102
RTVSPropertyOp42
 70
     1
102
RTVSPropertyOp43
 70
     1
102
RTVSPropertyOp44
 70
     1
102
RTVSPropertyOp45
 70
     1
102
RTVSPropertyOp46
 70
     1
102
RTVSPropertyOp47
 70
     1
102
RTVSPropertyOp48
 70
     1
102
RTVSPropertyOp49
 70
     1
102
RTVSPropertyOp50
 70
     1
102
RTVSPropertyOp51
 70
     0
102
RTVSPropertyOp52
 70
     0
102
RTVSPropertyOp53
 70
     1
102
RTVSPropertyOp54
 70
     1
102
RTVSPropertyOp55
 70
     1
102
RTVSPropertyOp56
 70
     1
102
RTVSPropertyOp57
 70
     1
102
RTVSPost2010Prop28
280
     0
102
RTVSPost2010PropOp28
 70
     1
102
RTVSPost2010Prop29
280
     1
102
RTVSPost2010PropOp29
 70
     1
102
RTVSPost2010Prop30
280
     1
102
RTVSPost2010PropOp30
 70
     1
102
RTVSPost2010Prop31
280
     0
102
RTVSPost2010PropOp31
 70
     1
102
RTVSPost2010Prop32
280
     0
102
RTVSPost2010PropOp32
 70
     1
102
RTVSPost2010Prop33
280
     0
102
RTVSPost2010PropOp33
 70
     1
102
RTVSPost2010Prop34
280
     0
102
RTVSPost2010PropOp34
 70
     1
102
RTVSPost2010Prop35
280
     0
102
RTVSPost2010PropOp35
 70
     1
102
RTVSPost2010Prop36
280
     0
102
RTVSPost2010PropOp36
 70
     1
102
RTVSPost2010Prop37
 90
       50
102
RTVSPost2010PropOp37
 70
     1
102
RTVSPost2010Prop38
140
0.0
102
RTVSPost2010PropOp38
 70
     1
102
RTVSPost2010Prop39
140
1.0
102
RTVSPost2010PropOp39
 70
     1
102
RTVSPost2010Prop40
 90
        0
102
RTVSPost2010PropOp40
 70
     1
102
RTVSPost2010Prop41ColorIndex
 90
       18
102
RTVSPost2010Prop41ColorRGB
 90
        0
102
RTVSPost2010PropOp41
 70
     1
102
RTVSPost2010Prop42
 90
       50
102
RTVSPost2010PropOp42
 70
     1
102
RTVSPost2010Prop43
 90
        3
102
RTVSPost2010PropOp43
 70
     1
102
RTVSPost2010Prop44ColorIndex
 90
        5
102
RTVSPost2010Prop44ColorRGB
 90
      255
102
RTVSPost2010PropOp44
 70
     1
102
RTVSPost2010Prop45
280
     0
102
RTVSPost2010PropOp45
 70
     1
102
RTVSPost2010Prop46
 90
       50
102
RTVSPost2010PropOp46
 70
     1
102
RTVSPost2010Prop47
 90
       50
102
RTVSPost2010PropOp47
 70
     1
102
RTVSPost2010Prop48
 90
       50
102
RTVSPost2010PropOp48
 70
     1
102
RTVSPost2010Prop49
280
     0
102
RTVSPost2010PropOp49
 70
     1
102
RTVSPost2010Prop50
 90
       50
102
RTVSPost2010PropOp50
 70
     1
102
RTVSPost2010Prop51ColorIndex
 90
      256
102
RTVSPost2010Prop51ColorRGB
 90
-16777216
102
RTVSPost2010PropOp51
 70
     0
102
RTVSPost2010Prop52
140
1.0
102
RTVSPost2010PropOp52
 70
     0
102
RTVSPost2010Prop53
 90
        2
102
RTVSPost2010PropOp53
 70
     1
102
RTVSPost2010Prop54
  1
strokes_ogs.tif
102
RTVSPost2010PropOp54
 70
     1
102
RTVSPost2010Prop55
280
     0
102
RTVSPost2010PropOp55
 70
     1
102
RTVSPost2010Prop56
140
1.0
102
RTVSPost2010PropOp56
 70
     1
102
RTVSPost2010Prop57
140
1.0
102
RTVSPost2010PropOp57
 70
     1
  0
XRECORD
  5
3B3B
102
{ACAD_REACTORS
330
3B3A
102
}
330
3B3A
100
AcDbXrecord
280
     1
102
RTVSPropertyOp0
 70
     1
102
RTVSPropertyOp1
 70
     1
102
RTVSPropertyOp2
 70
     1
102
RTVSPropertyOp3
 70
     1
102
RTVSPropertyOp4
 70
     1
102
RTVSPropertyOp5
 70
     1
102
RTVSPropertyOp6
 70
     1
102
RTVSPropertyOp7
 70
     1
102
RTVSPropertyOp8
 70
     1
102
RTVSPropertyOp9
 70
     1
102
RTVSPropertyOp10
 70
     1
102
RTVSPropertyOp11
 70
     1
102
RTVSPropertyOp12
 70
     1
102
RTVSPropertyOp13
 70
     1
102
RTVSPropertyOp14
 70
     1
102
RTVSPropertyOp15
 70
     1
102
RTVSPropertyOp16
 70
     1
102
RTVSPropertyOp17
 70
     1
102
RTVSPropertyOp18
 70
     1
102
RTVSPropertyOp19
 70
     1
102
RTVSPropertyOp20
 70
     1
102
RTVSPropertyOp21
 70
     1
102
RTVSPropertyOp22
 70
     1
102
RTVSPropertyOp23
 70
     1
102
RTVSPropertyOp24
 70
     1
102
RTVSPropertyOp25
 70
     1
102
RTVSPropertyOp26
 70
     1
102
RTVSPropertyOp27
 70
     1
102
RTVSPropertyOp28
 70
     1
102
RTVSPropertyOp29
 70
     1
102
RTVSPropertyOp30
 70
     1
102
RTVSPropertyOp31
 70
     1
102
RTVSPropertyOp32
 70
     1
102
RTVSPropertyOp33
 70
     1
102
RTVSPropertyOp34
 70
     1
102
RTVSPropertyOp35
 70
     1
102
RTVSPropertyOp36
 70
     1
102
RTVSPropertyOp37
 70
     1
102
RTVSPropertyOp38
 70
     1
102
RTVSPropertyOp39
 70
     1
102
RTVSPropertyOp40
 70
     1
102
RTVSPropertyOp41
 70
     1
102
RTVSPropertyOp42
 70
     1
102
RTVSPropertyOp43
 70
     1
102
RTVSPropertyOp44
 70
     1
102
RTVSPropertyOp45
 70
     1
102
RTVSPropertyOp46
 70
     1
102
RTVSPropertyOp47
 70
     1
102
RTVSPropertyOp48
 70
     1
102
RTVSPropertyOp49
 70
     1
102
RTVSPropertyOp50
 70
     1
102
RTVSPropertyOp51
 70
     0
102
RTVSPropertyOp52
 70
     0
102
RTVSPropertyOp53
 70
     1
102
RTVSPropertyOp54
 70
     1
102
RTVSPropertyOp55
 70
     1
102
RTVSPropertyOp56
 70
     1
102
RTVSPropertyOp57
 70
     1
102
RTVSPost2010Prop28
280
     0
102
RTVSPost2010PropOp28
 70
     1
102
RTVSPost2010Prop29
280
     1
102
RTVSPost2010PropOp29
 70
     1
102
RTVSPost2010Prop30
280
     1
102
RTVSPost2010PropOp30
 70
     1
102
RTVSPost2010Prop31
280
     0
102
RTVSPost2010PropOp31
 70
     1
102
RTVSPost2010Prop32
280
     0
102
RTVSPost2010PropOp32
 70
     1
102
RTVSPost2010Prop33
280
     0
102
RTVSPost2010PropOp33
 70
     1
102
RTVSPost2010Prop34
280
     0
102
RTVSPost2010PropOp34
 70
     1
102
RTVSPost2010Prop35
280
     0
102
RTVSPost2010PropOp35
 70
     1
102
RTVSPost2010Prop36
280
     0
102
RTVSPost2010PropOp36
 70
     1
102
RTVSPost2010Prop37
 90
       50
102
RTVSPost2010PropOp37
 70
     1
102
RTVSPost2010Prop38
140
0.0
102
RTVSPost2010PropOp38
 70
     1
102
RTVSPost2010Prop39
140
1.0
102
RTVSPost2010PropOp39
 70
     1
102
RTVSPost2010Prop40
 90
        0
102
RTVSPost2010PropOp40
 70
     1
102
RTVSPost2010Prop41ColorIndex
 90
       18
102
RTVSPost2010Prop41ColorRGB
 90
        0
102
RTVSPost2010PropOp41
 70
     1
102
RTVSPost2010Prop42
 90
       50
102
RTVSPost2010PropOp42
 70
     1
102
RTVSPost2010Prop43
 90
        3
102
RTVSPost2010PropOp43
 70
     1
102
RTVSPost2010Prop44ColorIndex
 90
        5
102
RTVSPost2010Prop44ColorRGB
 90
      255
102
RTVSPost2010PropOp44
 70
     1
102
RTVSPost2010Prop45
280
     0
102
RTVSPost2010PropOp45
 70
     1
102
RTVSPost2010Prop46
 90
       50
102
RTVSPost2010PropOp46
 70
     1
102
RTVSPost2010Prop47
 90
       50
102
RTVSPost2010PropOp47
 70
     1
102
RTVSPost2010Prop48
 90
       50
102
RTVSPost2010PropOp48
 70
     1
102
RTVSPost2010Prop49
280
     0
102
RTVSPost2010PropOp49
 70
     1
102
RTVSPost2010Prop50
 90
       50
102
RTVSPost2010PropOp50
 70
     1
102
RTVSPost2010Prop51ColorIndex
 90
      256
102
RTVSPost2010Prop51ColorRGB
 90
-16777216
102
RTVSPost2010PropOp51
 70
     0
102
RTVSPost2010Prop52
140
1.0
102
RTVSPost2010PropOp52
 70
     0
102
RTVSPost2010Prop53
 90
        2
102
RTVSPost2010PropOp53
 70
     1
102
RTVSPost2010Prop54
  1
strokes_ogs.tif
102
RTVSPost2010PropOp54
 70
     1
102
RTVSPost2010Prop55
280
     0
102
RTVSPost2010PropOp55
 70
     1
102
RTVSPost2010Prop56
140
1.0
102
RTVSPost2010PropOp56
 70
     1
102
RTVSPost2010Prop57
140
1.0
102
RTVSPost2010PropOp57
 70
     1
  0
XRECORD
  5
3B2B
102
{ACAD_REACTORS
330
3B2A
102
}
330
3B2A
100
AcDbXrecord
280
     1
102
RTVSPropertyOp0
 70
     1
102
RTVSPropertyOp1
 70
     1
102
RTVSPropertyOp2
 70
     1
102
RTVSPropertyOp3
 70
     1
102
RTVSPropertyOp4
 70
     1
102
RTVSPropertyOp5
 70
     1
102
RTVSPropertyOp6
 70
     1
102
RTVSPropertyOp7
 70
     1
102
RTVSPropertyOp8
 70
     1
102
RTVSPropertyOp9
 70
     1
102
RTVSPropertyOp10
 70
     1
102
RTVSPropertyOp11
 70
     1
102
RTVSPropertyOp12
 70
     1
102
RTVSPropertyOp13
 70
     1
102
RTVSPropertyOp14
 70
     1
102
RTVSPropertyOp15
 70
     1
102
RTVSPropertyOp16
 70
     1
102
RTVSPropertyOp17
 70
     1
102
RTVSPropertyOp18
 70
     1
102
RTVSPropertyOp19
 70
     1
102
RTVSPropertyOp20
 70
     1
102
RTVSPropertyOp21
 70
     1
102
RTVSPropertyOp22
 70
     1
102
RTVSPropertyOp23
 70
     1
102
RTVSPropertyOp24
 70
     1
102
RTVSPropertyOp25
 70
     1
102
RTVSPropertyOp26
 70
     1
102
RTVSPropertyOp27
 70
     1
102
RTVSPropertyOp28
 70
     1
102
RTVSPropertyOp29
 70
     1
102
RTVSPropertyOp30
 70
     1
102
RTVSPropertyOp31
 70
     1
102
RTVSPropertyOp32
 70
     1
102
RTVSPropertyOp33
 70
     1
102
RTVSPropertyOp34
 70
     1
102
RTVSPropertyOp35
 70
     1
102
RTVSPropertyOp36
 70
     1
102
RTVSPropertyOp37
 70
     1
102
RTVSPropertyOp38
 70
     1
102
RTVSPropertyOp39
 70
     1
102
RTVSPropertyOp40
 70
     1
102
RTVSPropertyOp41
 70
     1
102
RTVSPropertyOp42
 70
     1
102
RTVSPropertyOp43
 70
     1
102
RTVSPropertyOp44
 70
     1
102
RTVSPropertyOp45
 70
     1
102
RTVSPropertyOp46
 70
     1
102
RTVSPropertyOp47
 70
     1
102
RTVSPropertyOp48
 70
     1
102
RTVSPropertyOp49
 70
     1
102
RTVSPropertyOp50
 70
     1
102
RTVSPropertyOp51
 70
     0
102
RTVSPropertyOp52
 70
     0
102
RTVSPropertyOp53
 70
     1
102
RTVSPropertyOp54
 70
     1
102
RTVSPropertyOp55
 70
     1
102
RTVSPropertyOp56
 70
     1
102
RTVSPropertyOp57
 70
     1
102
RTVSPost2010Prop28
280
     0
102
RTVSPost2010PropOp28
 70
     1
102
RTVSPost2010Prop29
280
     1
102
RTVSPost2010PropOp29
 70
     1
102
RTVSPost2010Prop30
280
     1
102
RTVSPost2010PropOp30
 70
     1
102
RTVSPost2010Prop31
280
     0
102
RTVSPost2010PropOp31
 70
     1
102
RTVSPost2010Prop32
280
     0
102
RTVSPost2010PropOp32
 70
     1
102
RTVSPost2010Prop33
280
     0
102
RTVSPost2010PropOp33
 70
     1
102
RTVSPost2010Prop34
280
     0
102
RTVSPost2010PropOp34
 70
     1
102
RTVSPost2010Prop35
280
     0
102
RTVSPost2010PropOp35
 70
     1
102
RTVSPost2010Prop36
280
     0
102
RTVSPost2010PropOp36
 70
     1
102
RTVSPost2010Prop37
 90
       50
102
RTVSPost2010PropOp37
 70
     1
102
RTVSPost2010Prop38
140
0.0
102
RTVSPost2010PropOp38
 70
     1
102
RTVSPost2010Prop39
140
1.0
102
RTVSPost2010PropOp39
 70
     1
102
RTVSPost2010Prop40
 90
        0
102
RTVSPost2010PropOp40
 70
     1
102
RTVSPost2010Prop41ColorIndex
 90
       18
102
RTVSPost2010Prop41ColorRGB
 90
        0
102
RTVSPost2010PropOp41
 70
     1
102
RTVSPost2010Prop42
 90
       50
102
RTVSPost2010PropOp42
 70
     1
102
RTVSPost2010Prop43
 90
        3
102
RTVSPost2010PropOp43
 70
     1
102
RTVSPost2010Prop44ColorIndex
 90
        5
102
RTVSPost2010Prop44ColorRGB
 90
      255
102
RTVSPost2010PropOp44
 70
     1
102
RTVSPost2010Prop45
280
     0
102
RTVSPost2010PropOp45
 70
     1
102
RTVSPost2010Prop46
 90
       50
102
RTVSPost2010PropOp46
 70
     1
102
RTVSPost2010Prop47
 90
       50
102
RTVSPost2010PropOp47
 70
     1
102
RTVSPost2010Prop48
 90
       50
102
RTVSPost2010PropOp48
 70
     1
102
RTVSPost2010Prop49
280
     0
102
RTVSPost2010PropOp49
 70
     1
102
RTVSPost2010Prop50
 90
       50
102
RTVSPost2010PropOp50
 70
     1
102
RTVSPost2010Prop51ColorIndex
 90
      256
102
RTVSPost2010Prop51ColorRGB
 90
-16777216
102
RTVSPost2010PropOp51
 70
     0
102
RTVSPost2010Prop52
140
1.0
102
RTVSPost2010PropOp52
 70
     0
102
RTVSPost2010Prop53
 90
        2
102
RTVSPost2010PropOp53
 70
     1
102
RTVSPost2010Prop54
  1
strokes_ogs.tif
102
RTVSPost2010PropOp54
 70
     1
102
RTVSPost2010Prop55
280
     0
102
RTVSPost2010PropOp55
 70
     1
102
RTVSPost2010Prop56
140
1.0
102
RTVSPost2010PropOp56
 70
     1
102
RTVSPost2010Prop57
140
1.0
102
RTVSPost2010PropOp57
 70
     1
  0
XRECORD
  5
3B1D
102
{ACAD_REACTORS
330
3B1C
102
}
330
3B1C
100
AcDbXrecord
280
     1
102
RTVSPropertyOp0
 70
     1
102
RTVSPropertyOp1
 70
     1
102
RTVSPropertyOp2
 70
     1
102
RTVSPropertyOp3
 70
     1
102
RTVSPropertyOp4
 70
     1
102
RTVSPropertyOp5
 70
     1
102
RTVSPropertyOp6
 70
     1
102
RTVSPropertyOp7
 70
     1
102
RTVSPropertyOp8
 70
     1
102
RTVSPropertyOp9
 70
     1
102
RTVSPropertyOp10
 70
     1
102
RTVSPropertyOp11
 70
     1
102
RTVSPropertyOp12
 70
     1
102
RTVSPropertyOp13
 70
     1
102
RTVSPropertyOp14
 70
     1
102
RTVSPropertyOp15
 70
     1
102
RTVSPropertyOp16
 70
     1
102
RTVSPropertyOp17
 70
     1
102
RTVSPropertyOp18
 70
     1
102
RTVSPropertyOp19
 70
     1
102
RTVSPropertyOp20
 70
     1
102
RTVSPropertyOp21
 70
     1
102
RTVSPropertyOp22
 70
     1
102
RTVSPropertyOp23
 70
     1
102
RTVSPropertyOp24
 70
     1
102
RTVSPropertyOp25
 70
     1
102
RTVSPropertyOp26
 70
     1
102
RTVSPropertyOp27
 70
     1
102
RTVSPropertyOp28
 70
     1
102
RTVSPropertyOp29
 70
     1
102
RTVSPropertyOp30
 70
     1
102
RTVSPropertyOp31
 70
     1
102
RTVSPropertyOp32
 70
     1
102
RTVSPropertyOp33
 70
     1
102
RTVSPropertyOp34
 70
     1
102
RTVSPropertyOp35
 70
     1
102
RTVSPropertyOp36
 70
     1
102
RTVSPropertyOp37
 70
     1
102
RTVSPropertyOp38
 70
     1
102
RTVSPropertyOp39
 70
     1
102
RTVSPropertyOp40
 70
     1
102
RTVSPropertyOp41
 70
     1
102
RTVSPropertyOp42
 70
     1
102
RTVSPropertyOp43
 70
     1
102
RTVSPropertyOp44
 70
     1
102
RTVSPropertyOp45
 70
     1
102
RTVSPropertyOp46
 70
     1
102
RTVSPropertyOp47
 70
     1
102
RTVSPropertyOp48
 70
     1
102
RTVSPropertyOp49
 70
     1
102
RTVSPropertyOp50
 70
     1
102
RTVSPropertyOp51
 70
     0
102
RTVSPropertyOp52
 70
     0
102
RTVSPropertyOp53
 70
     1
102
RTVSPropertyOp54
 70
     1
102
RTVSPropertyOp55
 70
     1
102
RTVSPropertyOp56
 70
     1
102
RTVSPropertyOp57
 70
     1
102
RTVSPost2010Prop28
280
     0
102
RTVSPost2010PropOp28
 70
     1
102
RTVSPost2010Prop29
280
     1
102
RTVSPost2010PropOp29
 70
     1
102
RTVSPost2010Prop30
280
     1
102
RTVSPost2010PropOp30
 70
     1
102
RTVSPost2010Prop31
280
     0
102
RTVSPost2010PropOp31
 70
     1
102
RTVSPost2010Prop32
280
     0
102
RTVSPost2010PropOp32
 70
     1
102
RTVSPost2010Prop33
280
     0
102
RTVSPost2010PropOp33
 70
     1
102
RTVSPost2010Prop34
280
     0
102
RTVSPost2010PropOp34
 70
     1
102
RTVSPost2010Prop35
280
     0
102
RTVSPost2010PropOp35
 70
     1
102
RTVSPost2010Prop36
280
     0
102
RTVSPost2010PropOp36
 70
     1
102
RTVSPost2010Prop37
 90
       50
102
RTVSPost2010PropOp37
 70
     1
102
RTVSPost2010Prop38
140
0.0
102
RTVSPost2010PropOp38
 70
     1
102
RTVSPost2010Prop39
140
1.0
102
RTVSPost2010PropOp39
 70
     1
102
RTVSPost2010Prop40
 90
        0
102
RTVSPost2010PropOp40
 70
     1
102
RTVSPost2010Prop41ColorIndex
 90
       18
102
RTVSPost2010Prop41ColorRGB
 90
        0
102
RTVSPost2010PropOp41
 70
     1
102
RTVSPost2010Prop42
 90
       50
102
RTVSPost2010PropOp42
 70
     1
102
RTVSPost2010Prop43
 90
        3
102
RTVSPost2010PropOp43
 70
     1
102
RTVSPost2010Prop44ColorIndex
 90
        5
102
RTVSPost2010Prop44ColorRGB
 90
      255
102
RTVSPost2010PropOp44
 70
     1
102
RTVSPost2010Prop45
280
     0
102
RTVSPost2010PropOp45
 70
     1
102
RTVSPost2010Prop46
 90
       50
102
RTVSPost2010PropOp46
 70
     1
102
RTVSPost2010Prop47
 90
       50
102
RTVSPost2010PropOp47
 70
     1
102
RTVSPost2010Prop48
 90
       50
102
RTVSPost2010PropOp48
 70
     1
102
RTVSPost2010Prop49
280
     0
102
RTVSPost2010PropOp49
 70
     1
102
RTVSPost2010Prop50
 90
       50
102
RTVSPost2010PropOp50
 70
     1
102
RTVSPost2010Prop51ColorIndex
 90
      256
102
RTVSPost2010Prop51ColorRGB
 90
-16777216
102
RTVSPost2010PropOp51
 70
     0
102
RTVSPost2010Prop52
140
1.0
102
RTVSPost2010PropOp52
 70
     0
102
RTVSPost2010Prop53
 90
        2
102
RTVSPost2010PropOp53
 70
     1
102
RTVSPost2010Prop54
  1
strokes_ogs.tif
102
RTVSPost2010PropOp54
 70
     1
102
RTVSPost2010Prop55
280
     0
102
RTVSPost2010PropOp55
 70
     1
102
RTVSPost2010Prop56
140
1.0
102
RTVSPost2010PropOp56
 70
     1
102
RTVSPost2010Prop57
140
1.0
102
RTVSPost2010PropOp57
 70
     1
  0
XRECORD
  5
3B3D
102
{ACAD_REACTORS
330
3B3C
102
}
330
3B3C
100
AcDbXrecord
280
     1
102
RTVSPropertyOp0
 70
     1
102
RTVSPropertyOp1
 70
     1
102
RTVSPropertyOp2
 70
     1
102
RTVSPropertyOp3
 70
     1
102
RTVSPropertyOp4
 70
     1
102
RTVSPropertyOp5
 70
     1
102
RTVSPropertyOp6
 70
     1
102
RTVSPropertyOp7
 70
     1
102
RTVSPropertyOp8
 70
     1
102
RTVSPropertyOp9
 70
     1
102
RTVSPropertyOp10
 70
     1
102
RTVSPropertyOp11
 70
     1
102
RTVSPropertyOp12
 70
     1
102
RTVSPropertyOp13
 70
     1
102
RTVSPropertyOp14
 70
     1
102
RTVSPropertyOp15
 70
     1
102
RTVSPropertyOp16
 70
     1
102
RTVSPropertyOp17
 70
     1
102
RTVSPropertyOp18
 70
     1
102
RTVSPropertyOp19
 70
     1
102
RTVSPropertyOp20
 70
     1
102
RTVSPropertyOp21
 70
     1
102
RTVSPropertyOp22
 70
     1
102
RTVSPropertyOp23
 70
     1
102
RTVSPropertyOp24
 70
     1
102
RTVSPropertyOp25
 70
     1
102
RTVSPropertyOp26
 70
     1
102
RTVSPropertyOp27
 70
     1
102
RTVSPropertyOp28
 70
     1
102
RTVSPropertyOp29
 70
     1
102
RTVSPropertyOp30
 70
     1
102
RTVSPropertyOp31
 70
     1
102
RTVSPropertyOp32
 70
     1
102
RTVSPropertyOp33
 70
     1
102
RTVSPropertyOp34
 70
     1
102
RTVSPropertyOp35
 70
     1
102
RTVSPropertyOp36
 70
     1
102
RTVSPropertyOp37
 70
     1
102
RTVSPropertyOp38
 70
     1
102
RTVSPropertyOp39
 70
     1
102
RTVSPropertyOp40
 70
     1
102
RTVSPropertyOp41
 70
     1
102
RTVSPropertyOp42
 70
     1
102
RTVSPropertyOp43
 70
     1
102
RTVSPropertyOp44
 70
     1
102
RTVSPropertyOp45
 70
     1
102
RTVSPropertyOp46
 70
     1
102
RTVSPropertyOp47
 70
     1
102
RTVSPropertyOp48
 70
     1
102
RTVSPropertyOp49
 70
     1
102
RTVSPropertyOp50
 70
     1
102
RTVSPropertyOp51
 70
     0
102
RTVSPropertyOp52
 70
     0
102
RTVSPropertyOp53
 70
     1
102
RTVSPropertyOp54
 70
     1
102
RTVSPropertyOp55
 70
     1
102
RTVSPropertyOp56
 70
     1
102
RTVSPropertyOp57
 70
     1
102
RTVSPost2010Prop28
280
     0
102
RTVSPost2010PropOp28
 70
     1
102
RTVSPost2010Prop29
280
     1
102
RTVSPost2010PropOp29
 70
     1
102
RTVSPost2010Prop30
280
     1
102
RTVSPost2010PropOp30
 70
     1
102
RTVSPost2010Prop31
280
     0
102
RTVSPost2010PropOp31
 70
     1
102
RTVSPost2010Prop32
280
     0
102
RTVSPost2010PropOp32
 70
     1
102
RTVSPost2010Prop33
280
     0
102
RTVSPost2010PropOp33
 70
     1
102
RTVSPost2010Prop34
280
     0
102
RTVSPost2010PropOp34
 70
     1
102
RTVSPost2010Prop35
280
     0
102
RTVSPost2010PropOp35
 70
     1
102
RTVSPost2010Prop36
280
     0
102
RTVSPost2010PropOp36
 70
     1
102
RTVSPost2010Prop37
 90
       50
102
RTVSPost2010PropOp37
 70
     1
102
RTVSPost2010Prop38
140
0.0
102
RTVSPost2010PropOp38
 70
     1
102
RTVSPost2010Prop39
140
1.0
102
RTVSPost2010PropOp39
 70
     1
102
RTVSPost2010Prop40
 90
        0
102
RTVSPost2010PropOp40
 70
     1
102
RTVSPost2010Prop41ColorIndex
 90
       18
102
RTVSPost2010Prop41ColorRGB
 90
        0
102
RTVSPost2010PropOp41
 70
     1
102
RTVSPost2010Prop42
 90
       50
102
RTVSPost2010PropOp42
 70
     1
102
RTVSPost2010Prop43
 90
        3
102
RTVSPost2010PropOp43
 70
     1
102
RTVSPost2010Prop44ColorIndex
 90
        5
102
RTVSPost2010Prop44ColorRGB
 90
      255
102
RTVSPost2010PropOp44
 70
     1
102
RTVSPost2010Prop45
280
     0
102
RTVSPost2010PropOp45
 70
     1
102
RTVSPost2010Prop46
 90
       50
102
RTVSPost2010PropOp46
 70
     1
102
RTVSPost2010Prop47
 90
       50
102
RTVSPost2010PropOp47
 70
     1
102
RTVSPost2010Prop48
 90
       50
102
RTVSPost2010PropOp48
 70
     1
102
RTVSPost2010Prop49
280
     0
102
RTVSPost2010PropOp49
 70
     1
102
RTVSPost2010Prop50
 90
       50
102
RTVSPost2010PropOp50
 70
     1
102
RTVSPost2010Prop51ColorIndex
 90
      256
102
RTVSPost2010Prop51ColorRGB
 90
-16777216
102
RTVSPost2010PropOp51
 70
     0
102
RTVSPost2010Prop52
140
1.0
102
RTVSPost2010PropOp52
 70
     0
102
RTVSPost2010Prop53
 90
        2
102
RTVSPost2010PropOp53
 70
     1
102
RTVSPost2010Prop54
  1
strokes_ogs.tif
102
RTVSPost2010PropOp54
 70
     1
102
RTVSPost2010Prop55
280
     0
102
RTVSPost2010PropOp55
 70
     1
102
RTVSPost2010Prop56
140
1.0
102
RTVSPost2010PropOp56
 70
     1
102
RTVSPost2010Prop57
140
1.0
102
RTVSPost2010PropOp57
 70
     1
  0
ENDSEC
  0
EOF
