  0
SECTION
  2
HEADER
  9
$ACADVER
  1
AC1021
  9
$ACADMAINTVER
 70
    25
  9
$DWGCODEPAGE
  3
ANSI_1252
  9
$INSBASE
 10
0.0
 20
0.0
 30
0.0
  9
$EXTMIN
 10
1.000000000000000E+20
 20
1.000000000000000E+20
 30
1.000000000000000E+20
  9
$EXTMAX
 10
-1.000000000000000E+20
 20
-1.000000000000000E+20
 30
-1.000000000000000E+20
  9
$LIMMIN
 10
0.0
 20
0.0
  9
$LIMMAX
 10
12.0
 20
9.0
  9
$ORTHOMODE
 70
     0
  9
$REGENMODE
 70
     1
  9
$FILLMODE
 70
     1
  9
$QTEXTMODE
 70
     0
  9
$MIRRTEXT
 70
     1
  9
$LTSCALE
 40
1.0
  9
$ATTMODE
 70
     1
  9
$TEXTSIZE
 40
0.2
  9
$TRACEWID
 40
0.05
  9
$TEXTSTYLE
  7
Standard
  9
$CLAYER
  8
0
  9
$CELTYPE
  6
ByLayer
  9
$CECOLOR
 62
    18
  9
$CELTSCALE
 40
1.0
  9
$DISPSILH
 70
     0
  9
$DIMSCALE
 40
1.0
  9
$DIMASZ
 40
2.5
  9
$DIMEXO
 40
0.625
  9
$DIMDLI
 40
0.38
  9
$DIMRND
 40
0.0
  9
$DIMDLE
 40
0.0
  9
$DIMEXE
 40
1.25
  9
$DIMTP
 40
0.0
  9
$DIMTM
 40
0.0
  9
$DIMTXT
 40
2.5
  9
$DIMCEN
 40
0.09
  9
$DIMTSZ
 40
0.0
  9
$DIMTOL
 70
     0
  9
$DIMLIM
 70
     0
  9
$DIMTIH
 70
     1
  9
$DIMTOH
 70
     1
  9
$DIMSE1
 70
     0
  9
$DIMSE2
 70
     0
  9
$DIMTAD
 70
     0
  9
$DIMZIN
 70
     8
  9
$DIMBLK
  1

  9
$DIMASO
 70
     1
  9
$DIMSHO
 70
     1
  9
$DIMPOST
  1

  9
$DIMAPOST
  1

  9
$DIMALT
 70
     0
  9
$DIMALTD
 70
     2
  9
$DIMALTF
 40
25.4
  9
$DIMLFAC
 40
1.0
  9
$DIMTOFL
 70
     0
  9
$DIMTVP
 40
0.0
  9
$DIMTIX
 70
     0
  9
$DIMSOXD
 70
     0
  9
$DIMSAH
 70
     0
  9
$DIMBLK1
  1

  9
$DIMBLK2
  1

  9
$DIMSTYLE
  2
Standard
  9
$DIMCLRD
 70
    18
  9
$DIMCLRE
 70
    18
  9
$DIMCLRT
 70
    18
  9
$DIMTFAC
 40
1.0
  9
$DIMGAP
 40
0.625
  9
$DIMJUST
 70
     0
  9
$DIMSD1
 70
     0
  9
$DIMSD2
 70
     0
  9
$DIMTOLJ
 70
     1
  9
$DIMTZIN
 70
     0
  9
$DIMALTZ
 70
     0
  9
$DIMALTTZ
 70
     0
  9
$DIMUPT
 70
     0
  9
$DIMDEC
 70
     4
  9
$DIMTDEC
 70
     4
  9
$DIMALTU
 70
     2
  9
$DIMALTTD
 70
     2
  9
$DIMTXSTY
  7
Standard
  9
$DIMAUNIT
 70
     0
  9
$DIMADEC
 70
     0
  9
$DIMALTRND
 40
0.0
  9
$DIMAZIN
 70
     2
  9
$DIMDSEP
 70
    46
  9
$DIMATFIT
 70
     3
  9
$DIMFRAC
 70
     0
  9
$DIMLDRBLK
  1

  9
$DIMLUNIT
 70
     2
  9
$DIMLWD
 70
    -2
  9
$DIMLWE
 70
    -2
  9
$DIMTMOVE
 70
     0
  9
$DIMFXL
 40
1.0
  9
$DIMFXLON
 70
     0
  9
$DIMJOGANG
 40
0.7853981633974483
  9
$DIMTFILL
 70
     0
  9
$DIMTFILLCLR
 70
     0
  9
$DIMARCSYM
 70
     0
  9
$DIMLTYPE
  6

  9
$DIMLTEX1
  6

  9
$DIMLTEX2
  6

  9
$LUNITS
 70
     2
  9
$LUPREC
 70
     4
  9
$SKETCHINC
 40
0.1
  9
$FILLETRAD
 40
0.5
  9
$AUNITS
 70
     0
  9
$AUPREC
 70
     0
  9
$MENU
  1
.
  9
$ELEVATION
 40
0.0
  9
$PELEVATION
 40
0.0
  9
$THICKNESS
 40
0.0
  9
$LIMCHECK
 70
     0
  9
$CHAMFERA
 40
0.0
  9
$CHAMFERB
 40
0.0
  9
$CHAMFERC
 40
0.0
  9
$CHAMFERD
 40
0.0
  9
$SKPOLY
 70
     0
  9
$TDCREATE
 40
2457662.368605683
  9
$TDUCREATE
 40
2457662.28527235
  9
$TDUPDATE
 40
2457662.368606042
  9
$TDUUPDATE
 40
2457662.285272708
  9
$TDINDWG
 40
0.0000000116
  9
$TDUSRTIMER
 40
0.0000000116
  9
$USRTIMER
 70
     1
  9
$ANGBASE
 50
0.0
  9
$ANGDIR
 70
     0
  9
$PDMODE
 70
     0
  9
$PDSIZE
 40
0.0
  9
$PLINEWID
 40
0.0
  9
$SPLFRAME
 70
     0
  9
$SPLINETYPE
 70
     6
  9
$SPLINESEGS
 70
     8
  9
$HANDSEED
  5
3BD8
  9
$SURFTAB1
 70
     6
  9
$SURFTAB2
 70
     6
  9
$SURFTYPE
 70
     6
  9
$SURFU
 70
     6
  9
$SURFV
 70
     6
  9
$UCSBASE
  2

  9
$UCSNAME
  2

  9
$UCSORG
 10
0.0
 20
0.0
 30
0.0
  9
$UCSXDIR
 10
1.0
 20
0.0
 30
0.0
  9
$UCSYDIR
 10
0.0
 20
1.0
 30
0.0
  9
$UCSORTHOREF
  2

  9
$UCSORTHOVIEW
 70
     0
  9
$UCSORGTOP
 10
0.0
 20
0.0
 30
0.0
  9
$UCSORGBOTTOM
 10
0.0
 20
0.0
 30
0.0
  9
$UCSORGLEFT
 10
0.0
 20
0.0
 30
0.0
  9
$UCSORGRIGHT
 10
0.0
 20
0.0
 30
0.0
  9
$UCSORGFRONT
 10
0.0
 20
0.0
 30
0.0
  9
$UCSORGBACK
 10
0.0
 20
0.0
 30
0.0
  9
$PUCSBASE
  2

  9
$PUCSNAME
  2

  9
$PUCSORG
 10
0.0
 20
0.0
 30
0.0
  9
$PUCSXDIR
 10
1.0
 20
0.0
 30
0.0
  9
$PUCSYDIR
 10
0.0
 20
1.0
 30
0.0
  9
$PUCSORTHOREF
  2

  9
$PUCSORTHOVIEW
 70
     0
  9
$PUCSORGTOP
 10
0.0
 20
0.0
 30
0.0
  9
$PUCSORGBOTTOM
 10
0.0
 20
0.0
 30
0.0
  9
$PUCSORGLEFT
 10
0.0
 20
0.0
 30
0.0
  9
$PUCSORGRIGHT
 10
0.0
 20
0.0
 30
0.0
  9
$PUCSORGFRONT
 10
0.0
 20
0.0
 30
0.0
  9
$PUCSORGBACK
 10
0.0
 20
0.0
 30
0.0
  9
$USERI1
 70
     0
  9
$USERI2
 70
     0
  9
$USERI3
 70
     0
  9
$USERI4
 70
     0
  9
$USERI5
 70
     0
  9
$USERR1
 40
0.0
  9
$USERR2
 40
0.0
  9
$USERR3
 40
0.0
  9
$USERR4
 40
0.0
  9
$USERR5
 40
0.0
  9
$WORLDVIEW
 70
     1
  9
$SHADEDGE
 70
     3
  9
$SHADEDIF
 70
    70
  9
$TILEMODE
 70
     1
  9
$MAXACTVP
 70
    64
  9
$PINSBASE
 10
0.0
 20
0.0
 30
0.0
  9
$PLIMCHECK
 70
     0
  9
$PEXTMIN
 10
1.000000000000000E+20
 20
1.000000000000000E+20
 30
1.000000000000000E+20
  9
$PEXTMAX
 10
-1.000000000000000E+20
 20
-1.000000000000000E+20
 30
-1.000000000000000E+20
  9
$PLIMMIN
 10
0.0
 20
0.0
  9
$PLIMMAX
 10
12.0
 20
9.0
  9
$UNITMODE
 70
     0
  9
$VISRETAIN
 70
     1
  9
$PLINEGEN
 70
     0
  9
$PSLTSCALE
 70
     1
  9
$TREEDEPTH
 70
  3020
  9
$CMLSTYLE
  2
Standard
  9
$CMLJUST
 70
     0
  9
$CMLSCALE
 40
1.0
  9
$PROXYGRAPHICS
 70
     1
  9
$MEASUREMENT
 70
     1
  9
$CELWEIGHT
370
    -1
  9
$ENDCAPS
280
     0
  9
$JOINSTYLE
280
     0
  9
$LWDISPLAY
290
     0
  9
$INSUNITS
 70
     4
  9
$HYPERLINKBASE
  1

  9
$STYLESHEET
  1

  9
$XEDIT
290
     1
  9
$CEPSNTYPE
380
     0
  9
$PSTYLEMODE
290
     1
  9
$FINGERPRINTGUID
  2
{A9E95932-770E-4A93-BC78-A871822DC3AC}
  9
$VERSIONGUID
  2
{FAEB1C32-E019-11D5-929B-00C0DF256EC4}
  9
$EXTNAMES
290
     1
  9
$PSVPSCALE
 40
0.0
  9
$OLESTARTUP
290
     0
  9
$SORTENTS
280
   127
  9
$INDEXCTL
280
     0
  9
$HIDETEXT
280
     1
  9
$XCLIPFRAME
290
     0
  9
$HALOGAP
280
     0
  9
$OBSCOLOR
 70
   257
  9
$OBSLTYPE
280
     0
  9
$INTERSECTIONDISPLAY
280
     0
  9
$INTERSECTIONCOLOR
 70
   257
  9
$DIMASSOC
280
     2
  9
$PROJECTNAME
  1

  9
$CAMERADISPLAY
290
     0
  9
$LENSLENGTH
 40
50.0
  9
$CAMERAHEIGHT
 40
0.0
  9
$STEPSPERSEC
 40
2.0
  9
$STEPSIZE
 40
6.0
  9
$3DDWFPREC
 40
2.0
  9
$PSOLWIDTH
 40
0.25
  9
$PSOLHEIGHT
 40
4.0
  9
$LOFTANG1
 40
1.570796326794897
  9
$LOFTANG2
 40
1.570796326794897
  9
$LOFTMAG1
 40
0.0
  9
$LOFTMAG2
 40
0.0
  9
$LOFTPARAM
 70
     7
  9
$LOFTNORMALS
280
     1
  9
$LATITUDE
 40
37.795
  9
$LONGITUDE
 40
-122.394
  9
$NORTHDIRECTION
 40
0.0
  9
$TIMEZONE
 70
 -8000
  9
$LIGHTGLYPHDISPLAY
280
     1
  9
$TILEMODELIGHTSYNCH
280
     1
  9
$CMATERIAL
347
3B32
  9
$SOLIDHIST
280
     1
  9
$SHOWHIST
280
     1
  9
$DWFFRAME
280
     2
  9
$DGNFRAME
280
     2
  9
$REALWORLDSCALE
290
     1
  9
$INTERFERECOLOR
 62
   256
  9
$CSHADOW
280
     0
  9
$SHADOWPLANELOCATION
 40
0.0
  0
ENDSEC
  0
SECTION
  2
CLASSES
  0
CLASS
  1
ACDBDICTIONARYWDFLT
  2
AcDbDictionaryWithDefault
  3
ObjectDBX Classes
 90
        0
 91
        4
280
     0
281
     0
  0
CLASS
  1
VISUALSTYLE
  2
AcDbVisualStyle
  3
ObjectDBX Classes
 90
     4095
 91
        4
280
     0
281
     0
  0
CLASS
  1
MATERIAL
  2
AcDbMaterial
  3
ObjectDBX Classes
 90
     1153
 91
        4
280
     0
281
     0
  0
CLASS
  1
SCALE
  2
AcDbScale
  3
ObjectDBX Classes
 90
     1153
 91
        4
280
     0
281
     0
  0
CLASS
  1
SUN
  2
AcDbSun
  3
SCENEOE
 90
     1153
 91
        4
280
     0
281
     0
  0
CLASS
  1
DICTIONARYVAR
  2
AcDbDictionaryVar
  3
ObjectDBX Classes
 90
        0
 91
        4
280
     0
281
     0
  0
ENDSEC
  0
SECTION
  2
TABLES
  0
TABLE
  2
VPORT
  5
3AF7
330
0
100
AcDbSymbolTable
 70
     1
  0
VPORT
  5
3B17
330
3AF7
100
AcDbSymbolTableRecord
100
AcDbViewportTableRecord
  2
*Active
 70
     0
 10
0.0
 20
0.0
 11
1.0
 21
1.0
 12
10.42990654205607
 22
4.5
 13
0.0
 23
0.0
 14
0.5
 24
0.5
 15
0.5
 25
0.5
 16
0.0
 26
0.0
 36
1.0
 17
0.0
 27
0.0
 37
0.0
 40
9.0
 41
1.972972972850329
 42
50.0
 43
0.0
 44
0.0
 50
0.0
 51
0.0
 71
     0
 72
   100
 73
     1
 74
     3
 75
     0
 76
     0
 77
     0
 78
     0
281
     0
 65
     1
110
0.0
120
0.0
130
0.0
111
1.0
121
0.0
131
0.0
112
0.0
122
1.0
132
0.0
 79
     0
146
0.0
 60
     3
 61
     5
292
     1
282
     1
141
0.0
142
0.0
 63
   250
361
3B57
  0
ENDTAB
  0
TABLE
  2
LTYPE
  5
3AF4
330
0
100
AcDbSymbolTable
 70
    19
  0
LTYPE
  5
3B02
330
3AF4
100
AcDbSymbolTableRecord
100
AcDbLinetypeTableRecord
  2
ByBlock
 70
     0
  3

 72
    65
 73
     0
 40
0.0
  0
LTYPE
  5
3B03
330
3AF4
100
AcDbSymbolTableRecord
100
AcDbLinetypeTableRecord
  2
ByLayer
 70
     0
  3

 72
    65
 73
     0
 40
0.0
  0
LTYPE
  5
3B04
330
3AF4
100
AcDbSymbolTableRecord
100
AcDbLinetypeTableRecord
  2
Continuous
 70
     0
  3
Solid line
 72
    65
 73
     0
 40
0.0
  0
LTYPE
  5
3B86
330
3AF4
100
AcDbSymbolTableRecord
100
AcDbLinetypeTableRecord
  2
BORDER
 70
     0
  3

 72
    65
 73
     6
 40
42.00000000000001
 49
12.0
 74
     0
 49
-6.0
 74
     0
 49
12.0
 74
     0
 49
-5.95
 74
     0
 49
0.1
 74
     0
 49
-5.95
 74
     0
  0
LTYPE
  5
3B87
330
3AF4
100
AcDbSymbolTableRecord
100
AcDbLinetypeTableRecord
  2
BORDER2
 70
     0
  3

 72
    65
 73
     6
 40
21.0
 49
6.0
 74
     0
 49
-3.0
 74
     0
 49
6.0
 74
     0
 49
-2.95
 74
     0
 49
0.1
 74
     0
 49
-2.95
 74
     0
  0
LTYPE
  5
3B88
330
3AF4
100
AcDbSymbolTableRecord
100
AcDbLinetypeTableRecord
  2
BORDERX2
 70
     0
  3

 72
    65
 73
     6
 40
84.0
 49
24.0
 74
     0
 49
-12.0
 74
     0
 49
24.0
 74
     0
 49
-11.95
 74
     0
 49
0.1
 74
     0
 49
-11.95
 74
     0
  0
LTYPE
  5
3B89
330
3AF4
100
AcDbSymbolTableRecord
100
AcDbLinetypeTableRecord
  2
CENTER
 70
     0
  3

 72
    65
 73
     4
 40
50.0
 49
32.0
 74
     0
 49
-6.0
 74
     0
 49
6.0
 74
     0
 49
-6.0
 74
     0
  0
LTYPE
  5
3B8A
330
3AF4
100
AcDbSymbolTableRecord
100
AcDbLinetypeTableRecord
  2
CENTER2
 70
     0
  3

 72
    65
 73
     4
 40
25.0
 49
16.0
 74
     0
 49
-3.0
 74
     0
 49
3.0
 74
     0
 49
-3.0
 74
     0
  0
LTYPE
  5
3B8B
330
3AF4
100
AcDbSymbolTableRecord
100
AcDbLinetypeTableRecord
  2
CENTERX2
 70
     0
  3

 72
    65
 73
     4
 40
100.0
 49
64.0
 74
     0
 49
-12.0
 74
     0
 49
12.0
 74
     0
 49
-12.0
 74
     0
  0
LTYPE
  5
3B8C
330
3AF4
100
AcDbSymbolTableRecord
100
AcDbLinetypeTableRecord
  2
DASHDOT
 70
     0
  3

 72
    65
 73
     4
 40
24.0
 49
12.0
 74
     0
 49
-5.95
 74
     0
 49
0.1
 74
     0
 49
-5.95
 74
     0
  0
LTYPE
  5
3B8D
330
3AF4
100
AcDbSymbolTableRecord
100
AcDbLinetypeTableRecord
  2
DASHDOT2
 70
     0
  3

 72
    65
 73
     4
 40
12.0
 49
6.0
 74
     0
 49
-2.95
 74
     0
 49
0.1
 74
     0
 49
-2.95
 74
     0
  0
LTYPE
  5
3B8E
330
3AF4
100
AcDbSymbolTableRecord
100
AcDbLinetypeTableRecord
  2
DASHDOTX2
 70
     0
  3

 72
    65
 73
     4
 40
48.0
 49
24.0
 74
     0
 49
-11.95
 74
     0
 49
0.1
 74
     0
 49
-11.95
 74
     0
  0
LTYPE
  5
3B8F
330
3AF4
100
AcDbSymbolTableRecord
100
AcDbLinetypeTableRecord
  2
DASHED
 70
     0
  3

 72
    65
 73
     2
 40
18.0
 49
12.0
 74
     0
 49
-6.0
 74
     0
  0
LTYPE
  5
3B90
330
3AF4
100
AcDbSymbolTableRecord
100
AcDbLinetypeTableRecord
  2
DASHED2
 70
     0
  3

 72
    65
 73
     2
 40
9.0
 49
6.0
 74
     0
 49
-3.0
 74
     0
  0
LTYPE
  5
3B91
330
3AF4
100
AcDbSymbolTableRecord
100
AcDbLinetypeTableRecord
  2
DASHEDX2
 70
     0
  3

 72
    65
 73
     2
 40
36.0
 49
24.0
 74
     0
 49
-12.0
 74
     0
  0
LTYPE
  5
3B92
330
3AF4
100
AcDbSymbolTableRecord
100
AcDbLinetypeTableRecord
  2
DIVIDE
 70
     0
  3

 72
    65
 73
     6
 40
29.99999999999999
 49
12.0
 74
     0
 49
-5.9
 74
     0
 49
0.15
 74
     0
 49
-5.9
 74
     0
 49
0.15
 74
     0
 49
-5.9
 74
     0
  0
LTYPE
  5
3B93
330
3AF4
100
AcDbSymbolTableRecord
100
AcDbLinetypeTableRecord
  2
DIVIDE2
 70
     0
  3

 72
    65
 73
     6
 40
15.0
 49
6.0
 74
     0
 49
-2.9
 74
     0
 49
0.15
 74
     0
 49
-2.9
 74
     0
 49
0.15
 74
     0
 49
-2.9
 74
     0
  0
LTYPE
  5
3B94
330
3AF4
100
AcDbSymbolTableRecord
100
AcDbLinetypeTableRecord
  2
DIVIDEX2
 70
     0
  3

 72
    65
 73
     6
 40
59.99999999999999
 49
24.0
 74
     0
 49
-11.9
 74
     0
 49
0.15
 74
     0
 49
-11.9
 74
     0
 49
0.15
 74
     0
 49
-11.9
 74
     0
  0
LTYPE
  5
3B95
330
3AF4
100
AcDbSymbolTableRecord
100
AcDbLinetypeTableRecord
  2
DOT
 70
     0
  3

 72
    65
 73
     2
 40
6.3
 49
0.1
 74
     0
 49
-6.2
 74
     0
  0
LTYPE
  5
3B96
330
3AF4
100
AcDbSymbolTableRecord
100
AcDbLinetypeTableRecord
  2
DOT2
 70
     0
  3

 72
    65
 73
     2
 40
3.2
 49
0.1
 74
     0
 49
-3.1
 74
     0
  0
LTYPE
  5
3B97
330
3AF4
100
AcDbSymbolTableRecord
100
AcDbLinetypeTableRecord
  2
DOTX2
 70
     0
  3

 72
    65
 73
     2
 40
12.5
 49
0.1
 74
     0
 49
-12.4
 74
     0
  0
ENDTAB
  0
TABLE
  2
LAYER
  5
3AF1
330
0
100
AcDbSymbolTable
 70
    11
  0
LAYER
  5
3AFF
330
3AF1
100
AcDbSymbolTableRecord
100
AcDbLayerTableRecord
  2
0
 70
     0
 62
    18
420
        0
  6
Continuous
370
    25
390
3AFE
347
3B34
  0
LAYER
  5
3B98
330
3AF1
100
AcDbSymbolTableRecord
100
AcDbLayerTableRecord
  2
Anlasern
 70
     0
 62
     2
420
 16776960
  6
Continuous
370
    25
390
3AFE
347
3B34
  0
LAYER
  5
3B99
330
3AF1
100
AcDbSymbolTableRecord
100
AcDbLayerTableRecord
  2
WR Halter
 70
     0
 62
     6
420
 16711935
  6
Continuous
370
    35
390
3AFE
347
3B34
  0
LAYER
  5
3B9A
330
3AF1
100
AcDbSymbolTableRecord
100
AcDbLayerTableRecord
  2
Boardhalter
 70
     0
 62
     5
420
      255
  6
Continuous
370
    35
390
3AFE
347
3B34
  0
LAYER
  5
3B9B
330
3AF1
100
AcDbSymbolTableRecord
100
AcDbLayerTableRecord
  2
Rueckwand
 70
     0
 62
     5
420
      255
  6
Continuous
370
    35
390
3AFE
347
3B34
  0
LAYER
  5
3B9C
330
3AF1
100
AcDbSymbolTableRecord
100
AcDbLayerTableRecord
  2
Batthalter oben
 70
     0
 62
     3
420
    65280
  6
Continuous
370
    35
390
3AFE
347
3B34
  0
LAYER
  5
3B9D
330
3AF1
100
AcDbSymbolTableRecord
100
AcDbLayerTableRecord
  2
Haube
 70
     0
 62
     5
420
      255
  6
Continuous
370
    35
390
3AFE
347
3B34
  0
LAYER
  5
3B9E
330
3AF1
100
AcDbSymbolTableRecord
100
AcDbLayerTableRecord
  2
Deckel unten
 70
     0
 62
     5
420
      255
  6
Continuous
370
    35
390
3AFE
347
3B34
  0
LAYER
  5
3B9F
330
3AF1
100
AcDbSymbolTableRecord
100
AcDbLayerTableRecord
  2
Batterieboden
 70
     0
 62
     5
420
      255
  6
Continuous
370
    35
390
3AFE
347
3B34
  0
LAYER
  5
3BA0
330
3AF1
100
AcDbSymbolTableRecord
100
AcDbLayerTableRecord
  2
Dekoblech
 70
     0
 62
     4
420
    65535
  6
Continuous
370
    35
390
3AFE
347
3B34
  0
LAYER
  5
3BA1
330
3AF1
100
AcDbSymbolTableRecord
100
AcDbLayerTableRecord
  2
Deckel oben
 70
     0
 62
     5
420
      255
  6
Continuous
370
    35
390
3AFE
347
3B34
  0
ENDTAB
  0
TABLE
  2
STYLE
  5
3AF2
330
0
100
AcDbSymbolTable
 70
     1
  0
STYLE
  5
3B00
330
3AF2
100
AcDbSymbolTableRecord
100
AcDbTextStyleTableRecord
  2
Standard
 70
     0
 40
0.0
 41
1.0
 50
0.0
 71
     0
 42
0.2
  3
txt
  4

  0
ENDTAB
  0
TABLE
  2
VIEW
  5
3AF5
330
0
100
AcDbSymbolTable
 70
     0
  0
ENDTAB
  0
TABLE
  2
UCS
  5
3AF6
330
0
100
AcDbSymbolTable
 70
     0
  0
ENDTAB
  0
TABLE
  2
APPID
  5
3AF8
330
0
100
AcDbSymbolTable
 70
     2
  0
APPID
  5
3B01
330
3AF8
100
AcDbSymbolTableRecord
100
AcDbRegAppTableRecord
  2
ACAD
 70
     0
  0
APPID
  5
3B58
330
3AF8
100
AcDbSymbolTableRecord
100
AcDbRegAppTableRecord
  2
QCAD
 70
     0
  0
ENDTAB
  0
TABLE
  2
DIMSTYLE
  5
3AF9
330
0
100
AcDbSymbolTable
 70
     2
100
AcDbDimStyleTable
  0
DIMSTYLE
105
3B15
330
3AF9
100
AcDbSymbolTableRecord
100
AcDbDimStyleTableRecord
  2
Standard
 70
     0
178
     0
340
3B00
  0
DIMSTYLE
105
3B85
330
3AF9
100
AcDbSymbolTableRecord
100
AcDbDimStyleTableRecord
  2
QCADDimStyle
 70
     0
 41
2.5
 42
0.625
 44
1.25
 73
     0
 77
     1
140
2.5
147
0.625
178
     0
340
3B00
  0
ENDTAB
  0
TABLE
  2
BLOCK_RECORD
  5
3AF0
330
0
100
AcDbSymbolTable
 70
     1
  0
BLOCK_RECORD
  5
3B0D
330
3AF0
100
AcDbSymbolTableRecord
100
AcDbBlockTableRecord
  2
*Model_Space
340
3B10
 70
     0
280
     1
281
     0
  0
BLOCK_RECORD
  5
3B09
330
3AF0
100
AcDbSymbolTableRecord
100
AcDbBlockTableRecord
  2
*Paper_Space
340
3B0C
 70
     0
280
     1
281
     0
  0
BLOCK_RECORD
  5
3B11
330
3AF0
100
AcDbSymbolTableRecord
100
AcDbBlockTableRecord
  2
*Paper_Space0
340
3B14
 70
     0
280
     1
281
     0
  0
ENDTAB
  0
ENDSEC
  0
SECTION
  2
BLOCKS
  0
BLOCK
  5
3B0E
330
3B0D
100
AcDbEntity
  8
0
100
AcDbBlockBegin
  2
*Model_Space
 70
     0
 10
0.0
 20
0.0
 30
0.0
  3
*Model_Space
  1
*Model_Space
  0
ENDBLK
  5
3B0F
330
3B0D
100
AcDbEntity
  8
0
100
AcDbBlockEnd
  0
BLOCK
  5
3B0A
330
3B09
100
AcDbEntity
 67
     1
  8
0
100
AcDbBlockBegin
  2
*Paper_Space
 70
     0
 10
0.0
 20
0.0
 30
0.0
  3
*Paper_Space
  1
*Paper_Space
  0
ENDBLK
  5
3B0B
330
3B09
100
AcDbEntity
 67
     1
  8
0
100
AcDbBlockEnd
  0
BLOCK
  5
3B12
330
3B11
100
AcDbEntity
  8
0
100
AcDbBlockBegin
  2
*Paper_Space0
 70
     0
 10
0.0
 20
0.0
 30
0.0
  3
*Paper_Space0
  1
*Paper_Space0
  0
ENDBLK
  5
3B13
330
3B11
100
AcDbEntity
  8
0
100
AcDbBlockEnd
  0
ENDSEC
  0
SECTION
  2
ENTITIES
  0
ARC
  5
8C
330
3B0D
100
AcDbEntity
  8
Rueckwand
100
AcDbCircle
 10
-497.9551185404849
 20
332.5916944824461
 30
0.0
 40
15.0
100
AcDbArc
 50
90.0
 51
180.0169908221299
  0
ARC
  5
8D
330
3B0D
100
AcDbEntity
  8
Rueckwand
100
AcDbCircle
 10
-497.8046634453877
 20
-302.2996449658303
 30
0.0
 40
15.0
100
AcDbArc
 50
180.0169908221299
 51
270.0169908221397
  0
ARC
  5
9A
330
3B0D
100
AcDbEntity
  8
Rueckwand
100
AcDbCircle
 10
793.9023904732571
 20
-302.1684841910454
 30
0.0
 40
15.0
100
AcDbArc
 50
270.0
 51
0.0169908221298804
  0
ARC
  5
9B
330
3B0D
100
AcDbEntity
  8
Rueckwand
100
AcDbCircle
 10
793.7393842591334
 20
332.7228553234575
 30
0.0
 40
15.0
100
AcDbArc
 50
0.0169908221298804
 51
90.01699082213976
  0
CIRCLE
  5
AA
330
3B0D
100
AcDbEntity
  8
Rueckwand
100
AcDbCircle
 10
-482.0687244436286
 20
259.0474426838648
 30
0.0
 40
1.613737626879905
  0
CIRCLE
  5
AE
330
3B0D
100
AcDbEntity
  8
Rueckwand
100
AcDbCircle
 10
778.1267589701251
 20
259.2168566018363
 30
0.0
 40
1.7
  0
CIRCLE
  5
AF
330
3B0D
100
AcDbEntity
  8
Rueckwand
100
AcDbCircle
 10
778.1962028080109
 20
-214.9589045647076
 30
0.0
 40
1.7
  0
ARC
  5
104
330
3B0D
100
AcDbEntity
  8
Rueckwand
100
AcDbCircle
 10
-148.9651352876861
 20
323.1122117668705
 30
0.0
 40
3.199999999999987
100
AcDbArc
 50
24.97496536765974
 51
155.0250346323402
  0
ARC
  5
13C
330
3B0D
100
AcDbEntity
  8
Haube
100
AcDbCircle
 10
520.4963350339234
 20
345.1022655818762
 30
0.0
 40
20.0
100
AcDbArc
 50
0.0
 51
90.0
  0
ARC
  5
13D
330
3B0D
100
AcDbEntity
  8
Haube
100
AcDbCircle
 10
-224.5903772717578
 20
-314.8045233842329
 30
0.0
 40
20.0
100
AcDbArc
 50
180.0
 51
270.0
  0
ARC
  5
13E
330
3B0D
100
AcDbEntity
  8
Haube
100
AcDbCircle
 10
520.4963350339234
 20
-314.8045233842328
 30
0.0
 40
20.0
100
AcDbArc
 50
270.0
 51
0.0
  0
ARC
  5
13F
330
3B0D
100
AcDbEntity
  8
Haube
100
AcDbCircle
 10
-224.5903772717578
 20
345.1022655818761
 30
0.0
 40
20.0
100
AcDbArc
 50
90.0
 51
180.0
  0
LINE
  5
60F
330
3B0D
100
AcDbEntity
  8
Haube
100
AcDbLine
 10
-236.5098167404231
 20
251.9403552023527
 30
0.0
 11
-242.5809467296367
 21
251.9117278605608
 31
0.0
  0
LINE
  5
611
330
3B0D
100
AcDbEntity
  8
Haube
100
AcDbLine
 10
-234.519269516449
 20
253.9497635105691
 30
0.0
 11
-234.5431324754699
 21
259.0104892739213
 31
0.0
  0
LINE
  5
618
330
3B0D
100
AcDbEntity
  8
Haube
100
AcDbLine
 10
-236.2772771749073
 20
-222.0363406375358
 30
0.0
 11
-242.570442939265
 21
-222.0661599735903
 31
0.0
  0
LINE
  5
61E
330
3B0D
100
AcDbEntity
  8
Haube
100
AcDbLine
 10
532.2649280750455
 20
251.7650869422913
 30
0.0
 11
538.5003875219707
 21
251.7777215306671
 31
0.0
  0
LINE
  5
620
330
3B0D
100
AcDbEntity
  8
Haube
100
AcDbLine
 10
530.2608792477658
 20
253.761256211852
 30
0.0
 11
530.2512191065534
 21
258.8101565407254
 31
0.0
  0
LINE
  5
626
330
3B0D
100
AcDbEntity
  8
Haube
100
AcDbLine
 10
530.17790550001
 20
-220.0619306094143
 30
0.0
 11
530.2475589584512
 21
-215.0065556409409
 31
0.0
  0
CIRCLE
  5
62A
330
3B0D
100
AcDbEntity
  8
Rueckwand
100
AcDbCircle
 10
-482.2032309253251
 20
-215.037863515757
 30
0.0
 40
1.613737626879905
  0
LINE
  5
793
330
3B0D
100
AcDbEntity
  8
Haube
100
AcDbLine
 10
-234.3214784672459
 20
-214.9678337872998
 30
0.0
 11
-234.28680086708
 21
-220.0226427749334
 31
0.0
  0
LINE
  5
797
330
3B0D
100
AcDbEntity
  8
Haube
100
AcDbLine
 10
532.1505426038456
 20
-222.0892995901712
 30
0.0
 11
538.5331567362659
 21
-222.1760252601553
 31
0.0
  0
LINE
  5
1505
330
3B0D
100
AcDbEntity
  8
Haube
100
AcDbLine
 10
520.4963350339234
 20
365.1022655818762
 30
0.0
 11
518.8382605506888
 21
365.1022655818762
 31
0.0
  0
LINE
  5
1507
330
3B0D
100
AcDbEntity
  8
Haube
100
AcDbLine
 10
-224.5903772717578
 20
365.1022655818761
 30
0.0
 11
-222.9403772717577
 21
365.1022655818759
 31
0.0
  0
LINE
  5
1508
330
3B0D
100
AcDbEntity
  8
Haube
100
AcDbLine
 10
-224.5903772717578
 20
-334.8045233842329
 30
0.0
 11
-222.9638907885219
 21
-334.8045233842328
 31
0.0
  0
LINE
  5
1D86
330
3B0D
100
AcDbEntity
  8
Rueckwand
100
AcDbLine
 10
-151.8659108331966
 20
324.4633228779816
 30
0.0
 11
-151.8620555317231
 21
320.4846409033685
 31
0.0
  0
LINE
  5
1D87
330
3B0D
100
AcDbEntity
  8
Rueckwand
100
AcDbLine
 10
-146.0643597421755
 20
324.4633228779816
 30
0.0
 11
-146.0593006783815
 21
320.4805808848918
 31
0.0
  0
ARC
  5
1D88
330
3B0D
100
AcDbEntity
  8
Rueckwand
100
AcDbCircle
 10
-148.9651352876861
 20
314.1122117668705
 30
0.0
 40
6.999999999999996
100
AcDbArc
 50
114.4466488199535
 51
65.47317481851545
  0
LINE
  5
1D89
330
3B0D
100
AcDbEntity
  8
Rueckwand
100
AcDbLine
 10
444.2582922460339
 20
324.4841008744934
 30
0.0
 11
444.2621475475075
 21
320.5054188998803
 31
0.0
  0
LINE
  5
1D8A
330
3B0D
100
AcDbEntity
  8
Rueckwand
100
AcDbLine
 10
450.059843337055
 20
324.4841008744933
 30
0.0
 11
450.0649024008491
 21
320.5013588814036
 31
0.0
  0
ARC
  5
1D8B
330
3B0D
100
AcDbEntity
  8
Rueckwand
100
AcDbCircle
 10
447.1590677915445
 20
314.1329897633823
 30
0.0
 40
6.999999999999996
100
AcDbArc
 50
114.4466488199535
 51
65.47317481851545
  0
ARC
  5
1D8C
330
3B0D
100
AcDbEntity
  8
Rueckwand
100
AcDbCircle
 10
447.1590677915445
 20
323.1329897633823
 30
0.0
 40
3.199999999999987
100
AcDbArc
 50
24.97496536765974
 51
155.0250346323402
  0
CIRCLE
  5
1DAB
330
3B0D
100
AcDbEntity
  8
Batterieboden
100
AcDbCircle
 10
460.9767723786601
 20
14.60750363409423
 30
0.0
 40
2.7
  0
CIRCLE
  5
1DAC
330
3B0D
100
AcDbEntity
  8
Batterieboden
100
AcDbCircle
 10
-165.0869843606483
 20
14.60750363409423
 30
0.0
 40
2.7
  0
LINE
  5
1DB6
330
3B0D
100
AcDbEntity
  8
Batterieboden
100
AcDbLine
 10
-212.5854999420147
 20
287.6075036340942
 30
0.0
 11
-212.5854999420147
 21
59.60750363409423
 31
0.0
  0
LINE
  5
1DB7
330
3B0D
100
AcDbEntity
  8
Batterieboden
100
AcDbLine
 10
508.4649588583135
 20
287.6075036340943
 30
0.0
 11
508.4649588583135
 21
59.60750363409423
 31
0.0
  0
LINE
  5
1DB8
330
3B0D
100
AcDbEntity
  8
Batterieboden
100
AcDbLine
 10
-202.5854999420147
 20
297.6075036340942
 30
0.0
 11
-192.5854999420147
 21
297.6075036340942
 31
0.0
  0
LINE
  5
1DB9
330
3B0D
100
AcDbEntity
  8
Batterieboden
100
AcDbLine
 10
-202.5854999420147
 20
49.60750363409423
 30
0.0
 11
-192.5854999420147
 21
49.60750363409423
 31
0.0
  0
LINE
  5
1DBA
330
3B0D
100
AcDbEntity
  8
Batterieboden
100
AcDbLine
 10
498.4649588583134
 20
49.60750363409423
 30
0.0
 11
488.4649588583135
 21
49.60750363409423
 31
0.0
  0
LINE
  5
1DBB
330
3B0D
100
AcDbEntity
  8
Batterieboden
100
AcDbLine
 10
498.4649588583135
 20
297.6075036340942
 30
0.0
 11
488.4649588583135
 21
297.6075036340942
 31
0.0
  0
LINE
  5
1DC5
330
3B0D
100
AcDbEntity
  8
Batterieboden
100
AcDbLine
 10
-190.5854999420147
 20
25.6515061311895
 30
0.0
 11
-189.0734534164149
 21
24.60750363409423
 31
0.0
  0
LINE
  5
1DC6
330
3B0D
100
AcDbEntity
  8
Batterieboden
100
AcDbLine
 10
-189.0734534164149
 20
24.60750363409423
 30
0.0
 11
-190.5854999420147
 21
23.60182343134562
 31
0.0
  0
LINE
  5
1DC7
330
3B0D
100
AcDbEntity
  8
Batterieboden
100
AcDbLine
 10
486.4649588583135
 20
23.63709222814529
 30
0.0
 11
484.9587878750816
 21
24.60750363409423
 31
0.0
  0
LINE
  5
1DC8
330
3B0D
100
AcDbEntity
  8
Batterieboden
100
AcDbLine
 10
484.9587878750816
 20
24.60750363409423
 30
0.0
 11
486.4649588583135
 21
25.60820933975304
 31
0.0
  0
LINE
  5
1DC9
330
3B0D
100
AcDbEntity
  8
Batterieboden
100
AcDbLine
 10
486.4649588583135
 20
14.60750363409423
 30
0.0
 11
486.4649588583135
 21
23.63709222814529
 31
0.0
  0
LINE
  5
1DCA
330
3B0D
100
AcDbEntity
  8
Batterieboden
100
AcDbLine
 10
488.4649588583135
 20
27.60820933975304
 30
0.0
 11
488.4649588583135
 21
49.60750363409423
 31
0.0
  0
LINE
  5
1DCF
330
3B0D
100
AcDbEntity
  8
Batterieboden
100
AcDbLine
 10
-190.5854999420147
 20
14.60750363409423
 30
0.0
 11
-190.5854999420147
 21
23.60182343134562
 31
0.0
  0
LINE
  5
1DD0
330
3B0D
100
AcDbEntity
  8
Batterieboden
100
AcDbLine
 10
-192.5854999420147
 20
27.6515061311895
 30
0.0
 11
-192.5854999420147
 21
49.60750363409423
 31
0.0
  0
CIRCLE
  5
1DD3
330
3B0D
100
AcDbEntity
  8
Batterieboden
100
AcDbCircle
 10
-202.5854999420147
 20
173.6075036340942
 30
0.0
 40
2.7
  0
CIRCLE
  5
1DD4
330
3B0D
100
AcDbEntity
  8
Batterieboden
100
AcDbCircle
 10
498.4649588583135
 20
173.6075036340942
 30
0.0
 40
2.7
  0
CIRCLE
  5
1DD5
330
3B0D
100
AcDbEntity
  8
Batterieboden
100
AcDbCircle
 10
498.4649588583135
 20
273.6392865588965
 30
0.0
 40
2.7
  0
CIRCLE
  5
1DD6
330
3B0D
100
AcDbEntity
  8
Batterieboden
100
AcDbCircle
 10
498.4649588583135
 20
73.58698876255966
 30
0.0
 40
2.7
  0
CIRCLE
  5
1DD7
330
3B0D
100
AcDbEntity
  8
Batterieboden
100
AcDbCircle
 10
-202.5854999420147
 20
73.64893506170571
 30
0.0
 40
2.7
  0
CIRCLE
  5
1DD8
330
3B0D
100
AcDbEntity
  8
Batterieboden
100
AcDbCircle
 10
-202.5854999420147
 20
273.6409555876604
 30
0.0
 40
2.7
  0
ARC
  5
1DD9
330
3B0D
100
AcDbEntity
  8
Batterieboden
100
AcDbCircle
 10
-157.5917450219183
 20
347.3965619654019
 30
0.0
 40
10.0
100
AcDbArc
 50
90.0
 51
180.0
  0
ARC
  5
1DDA
330
3B0D
100
AcDbEntity
  8
Batterieboden
100
AcDbCircle
 10
458.4641208314381
 20
347.3827976841303
 30
0.0
 40
10.0
100
AcDbArc
 50
0.0
 51
90.0000000000005
  0
ARC
  5
1DDB
330
3B0D
100
AcDbEntity
  8
Batterieboden
100
AcDbCircle
 10
498.4649588583135
 20
287.6075036340943
 30
0.0
 40
10.0
100
AcDbArc
 50
0.0
 51
90.0
  0
ARC
  5
1DDC
330
3B0D
100
AcDbEntity
  8
Batterieboden
100
AcDbCircle
 10
498.4649588583134
 20
59.60750363409422
 30
0.0
 40
10.0
100
AcDbArc
 50
270.0
 51
0.0
  0
ARC
  5
1DDD
330
3B0D
100
AcDbEntity
  8
Batterieboden
100
AcDbCircle
 10
476.4649588583135
 20
14.60750363409423
 30
0.0
 40
10.0
100
AcDbArc
 50
270.0
 51
0.0
  0
ARC
  5
1DDE
330
3B0D
100
AcDbEntity
  8
Batterieboden
100
AcDbCircle
 10
-180.5854999420147
 20
14.60750363409423
 30
0.0
 40
10.0
100
AcDbArc
 50
180.0
 51
270.0
  0
ARC
  5
1DDF
330
3B0D
100
AcDbEntity
  8
Batterieboden
100
AcDbCircle
 10
-202.5854999420147
 20
59.60750363409422
 30
0.0
 40
10.0
100
AcDbArc
 50
180.0
 51
270.0
  0
ARC
  5
1DE0
330
3B0D
100
AcDbEntity
  8
Batterieboden
100
AcDbCircle
 10
-202.5854999420147
 20
287.6075036340942
 30
0.0
 40
10.0
100
AcDbArc
 50
90.0
 51
180.0
  0
CIRCLE
  5
1DE2
330
3B0D
100
AcDbEntity
  8
Rueckwand
100
AcDbCircle
 10
-165.0869843606483
 20
14.60750363409423
 30
0.0
 40
2.7
  0
CIRCLE
  5
1DE3
330
3B0D
100
AcDbEntity
  8
Rueckwand
100
AcDbCircle
 10
460.9767723786601
 20
14.60750363409423
 30
0.0
 40
2.7
  0
CIRCLE
  5
1DE9
330
3B0D
100
AcDbEntity
  8
Rueckwand
100
AcDbCircle
 10
-344.4756398353737
 20
14.52346824151738
 30
0.0
 40
2.7
  0
CIRCLE
  5
1DEA
330
3B0D
100
AcDbEntity
  8
Rueckwand
100
AcDbCircle
 10
-244.4861125530398
 20
14.54829766695477
 30
0.0
 40
2.7
  0
CIRCLE
  5
1DEB
330
3B0D
100
AcDbEntity
  8
Rueckwand
100
AcDbCircle
 10
-444.4890740072704
 20
14.49863287951495
 30
0.0
 40
2.7
  0
CIRCLE
  5
1DF0
330
3B0D
100
AcDbEntity
  8
Rueckwand
100
AcDbCircle
 10
640.365505836719
 20
14.6985521455542
 30
0.0
 40
2.7
  0
CIRCLE
  5
1DF1
330
3B0D
100
AcDbEntity
  8
Rueckwand
100
AcDbCircle
 10
540.3583608808094
 20
14.6716466840937
 30
0.0
 40
2.7
  0
CIRCLE
  5
1DF2
330
3B0D
100
AcDbEntity
  8
Rueckwand
100
AcDbCircle
 10
740.3420250725569
 20
14.72544936761209
 30
0.0
 40
2.7
  0
LINE
  5
1DFE
330
3B0D
100
AcDbEntity
  8
Batterieboden
100
AcDbLine
 10
486.4649588583135
 20
320.8070280923107
 30
0.0
 11
468.4641208314382
 21
320.8070280923107
 31
0.0
  0
ARC
  5
1E06
330
3B0D
100
AcDbEntity
  8
Batterieboden
100
AcDbCircle
 10
486.4649588583135
 20
318.8070280923108
 30
0.0
 40
2.0
100
AcDbArc
 50
0.0
 51
90.0
  0
ARC
  5
1E07
330
3B0D
100
AcDbEntity
  8
Batterieboden
100
AcDbCircle
 10
-190.5854999420147
 20
318.8215001913762
 30
0.0
 40
2.0
100
AcDbArc
 50
90.0
 51
180.0
  0
LINE
  5
1E09
330
3B0D
100
AcDbEntity
  8
Deckel unten
100
AcDbLine
 10
486.5445421218018
 20
-315.410010109487
 30
0.0
 11
485.0383711385699
 21
-316.3804215154362
 31
0.0
  0
LINE
  5
1E0A
330
3B0D
100
AcDbEntity
  8
Deckel unten
100
AcDbLine
 10
485.0383711385699
 20
-316.3804215154362
 30
0.0
 11
486.5445421218018
 21
-317.3811272210945
 31
0.0
  0
LINE
  5
1E0B
330
3B0D
100
AcDbEntity
  8
Deckel unten
100
AcDbLine
 10
486.5445421218018
 20
-306.380421515436
 30
0.0
 11
486.5445421218018
 21
-315.410010109487
 31
0.0
  0
LINE
  5
1E11
330
3B0D
100
AcDbEntity
  8
Deckel unten
100
AcDbLine
 10
-190.5059166785264
 20
-306.380421515436
 30
0.0
 11
-190.5059166785264
 21
-315.3747413126869
 31
0.0
  0
CIRCLE
  5
1E13
330
3B0D
100
AcDbEntity
  8
Deckel unten
100
AcDbCircle
 10
-202.5059166785263
 20
-465.380421515436
 30
0.0
 40
2.7
  0
CIRCLE
  5
1E14
330
3B0D
100
AcDbEntity
  8
Deckel unten
100
AcDbCircle
 10
498.5445421218018
 20
-465.380421515436
 30
0.0
 40
2.7
  0
CIRCLE
  5
1E15
330
3B0D
100
AcDbEntity
  8
Deckel unten
100
AcDbCircle
 10
498.5445421218018
 20
-565.4122044402383
 30
0.0
 40
2.7
  0
CIRCLE
  5
1E16
330
3B0D
100
AcDbEntity
  8
Deckel unten
100
AcDbCircle
 10
498.5445421218018
 20
-365.3599066439014
 30
0.0
 40
2.7
  0
CIRCLE
  5
1E17
330
3B0D
100
AcDbEntity
  8
Deckel unten
100
AcDbCircle
 10
-202.5059166785264
 20
-365.4218529430474
 30
0.0
 40
2.7
  0
CIRCLE
  5
1E18
330
3B0D
100
AcDbEntity
  8
Deckel unten
100
AcDbCircle
 10
-202.5059166785263
 20
-565.4138734690022
 30
0.0
 40
2.7
  0
ARC
  5
1E1B
330
3B0D
100
AcDbEntity
  8
Deckel unten
100
AcDbCircle
 10
498.5445421218018
 20
-601.3804215154361
 30
0.0
 40
10.0
100
AcDbArc
 50
270.0
 51
0.0
  0
ARC
  5
1E1C
330
3B0D
100
AcDbEntity
  8
Deckel unten
100
AcDbCircle
 10
498.5445421218017
 20
-331.380421515436
 30
0.0
 40
10.0
100
AcDbArc
 50
0.0
 51
90.00000000000001
  0
ARC
  5
1E1D
330
3B0D
100
AcDbEntity
  8
Deckel unten
100
AcDbCircle
 10
476.5388899221579
 20
-282.2416424145711
 30
0.0
 40
10.0
100
AcDbArc
 50
0.0
 51
90.00000000000001
  0
ARC
  5
1E1E
330
3B0D
100
AcDbEntity
  8
Deckel unten
100
AcDbCircle
 10
-180.5115688781703
 20
-282.2416424145711
 30
0.0
 40
10.0
100
AcDbArc
 50
90.00000000000001
 51
180.0
  0
ARC
  5
1E1F
330
3B0D
100
AcDbEntity
  8
Deckel unten
100
AcDbCircle
 10
-202.5059166785264
 20
-331.3804215154361
 30
0.0
 40
10.0
100
AcDbArc
 50
90.00000000000001
 51
180.0
  0
ARC
  5
1E20
330
3B0D
100
AcDbEntity
  8
Deckel unten
100
AcDbCircle
 10
-202.5059166785264
 20
-601.3804215154358
 30
0.0
 40
10.0
100
AcDbArc
 50
180.0
 51
270.0
  0
CIRCLE
  5
1E25
330
3B0D
100
AcDbEntity
  8
Deckel unten
100
AcDbCircle
 10
-165.00740109716
 20
-306.380421515436
 30
0.0
 40
2.7
  0
LINE
  5
1E2A
330
3B0D
100
AcDbEntity
  8
Deckel unten
100
AcDbLine
 10
-202.5059166785263
 20
-611.380421515436
 30
0.0
 11
-192.5059166785264
 21
-611.3804215154358
 31
0.0
  0
LINE
  5
1E2B
330
3B0D
100
AcDbEntity
  8
Deckel unten
100
AcDbLine
 10
-202.5059166785264
 20
-321.380421515436
 30
0.0
 11
-192.5059166785264
 21
-321.380421515436
 31
0.0
  0
LINE
  5
1E2C
330
3B0D
100
AcDbEntity
  8
Deckel unten
100
AcDbLine
 10
498.5445421218017
 20
-321.380421515436
 30
0.0
 11
488.5445421218018
 21
-321.380421515436
 31
0.0
  0
LINE
  5
1E2E
330
3B0D
100
AcDbEntity
  8
Deckel unten
100
AcDbLine
 10
498.5445421218018
 20
-611.3804215154358
 30
0.0
 11
488.5445421218018
 21
-611.380421515436
 31
0.0
  0
LINE
  5
1E34
330
3B0D
100
AcDbEntity
  8
Deckel unten
100
AcDbLine
 10
-190.5059166785264
 20
-317.4244240125311
 30
0.0
 11
-188.9938701529266
 21
-316.380421515436
 31
0.0
  0
LINE
  5
1E36
330
3B0D
100
AcDbEntity
  8
Deckel unten
100
AcDbLine
 10
-188.9938701529266
 20
-316.380421515436
 30
0.0
 11
-190.5059166785264
 21
-315.3747413126869
 31
0.0
  0
ARC
  5
1E3C
330
3B0D
100
AcDbEntity
  8
Deckel unten
100
AcDbCircle
 10
-152.5059166785264
 20
-616.3868652423947
 30
0.0
 40
40.0
100
AcDbArc
 50
180.0
 51
270.0025031599467
  0
ARC
  5
1E3D
330
3B0D
100
AcDbEntity
  8
Deckel unten
100
AcDbCircle
 10
448.5445421218018
 20
-616.3739749650044
 30
0.0
 40
40.0
100
AcDbArc
 50
270.0025031599469
 51
0.0
  0
LINE
  5
1E3E
330
3B0D
100
AcDbEntity
  8
Deckel oben
100
AcDbLine
 10
484.8860893321294
 20
316.8687260895692
 30
0.0
 11
486.3922603153612
 21
317.8694317952281
 31
0.0
  0
LINE
  5
1E3F
330
3B0D
100
AcDbEntity
  8
Deckel oben
100
AcDbLine
 10
486.3922603153612
 20
306.8687260895692
 30
0.0
 11
486.3922603153612
 21
315.8983146836204
 31
0.0
  0
LINE
  5
1E43
330
3B0D
100
AcDbEntity
  8
Deckel oben
100
AcDbLine
 10
-190.658198484967
 20
306.8687260895692
 30
0.0
 11
-190.658198484967
 21
315.8630458868207
 31
0.0
  0
CIRCLE
  5
1E45
330
3B0D
100
AcDbEntity
  8
Deckel oben
100
AcDbCircle
 10
-202.6581984849669
 20
465.8687260895692
 30
0.0
 40
2.7
  0
CIRCLE
  5
1E46
330
3B0D
100
AcDbEntity
  8
Deckel oben
100
AcDbCircle
 10
498.3922603153612
 20
465.8687260895692
 30
0.0
 40
2.7
  0
CIRCLE
  5
1E47
330
3B0D
100
AcDbEntity
  8
Deckel oben
100
AcDbCircle
 10
498.3922603153612
 20
565.9005090143716
 30
0.0
 40
2.7
  0
CIRCLE
  5
1E48
330
3B0D
100
AcDbEntity
  8
Deckel oben
100
AcDbCircle
 10
498.3922603153612
 20
365.8482112180347
 30
0.0
 40
2.7
  0
CIRCLE
  5
1E49
330
3B0D
100
AcDbEntity
  8
Deckel oben
100
AcDbCircle
 10
-202.658198484967
 20
365.9101575171808
 30
0.0
 40
2.7
  0
CIRCLE
  5
1E4A
330
3B0D
100
AcDbEntity
  8
Deckel oben
100
AcDbCircle
 10
-202.6581984849669
 20
565.9021780431355
 30
0.0
 40
2.7
  0
ARC
  5
1E4B
330
3B0D
100
AcDbEntity
  8
Deckel oben
100
AcDbCircle
 10
498.3922603153612
 20
601.8687260895693
 30
0.0
 40
10.0
100
AcDbArc
 50
0.0
 51
90.0
  0
ARC
  5
1E4C
330
3B0D
100
AcDbEntity
  8
Deckel oben
100
AcDbCircle
 10
498.3922603153612
 20
331.8687260895692
 30
0.0
 40
10.0
100
AcDbArc
 50
270.0
 51
0.0
  0
ARC
  5
1E4D
330
3B0D
100
AcDbEntity
  8
Deckel oben
100
AcDbCircle
 10
476.3922603153612
 20
306.8687260895692
 30
0.0
 40
10.0
100
AcDbArc
 50
270.0
 51
0.0
  0
ARC
  5
1E4E
330
3B0D
100
AcDbEntity
  8
Deckel oben
100
AcDbCircle
 10
-180.658198484967
 20
306.8687260895692
 30
0.0
 40
10.0
100
AcDbArc
 50
180.0
 51
270.0
  0
ARC
  5
1E4F
330
3B0D
100
AcDbEntity
  8
Deckel oben
100
AcDbCircle
 10
-202.658198484967
 20
331.8687260895692
 30
0.0
 40
10.0
100
AcDbArc
 50
180.0
 51
270.0
  0
ARC
  5
1E50
330
3B0D
100
AcDbEntity
  8
Deckel oben
100
AcDbCircle
 10
-202.658198484967
 20
601.8687260895692
 30
0.0
 40
10.0
100
AcDbArc
 50
90.0
 51
180.0
  0
CIRCLE
  5
1E54
330
3B0D
100
AcDbEntity
  8
Deckel oben
100
AcDbCircle
 10
460.9040738357078
 20
306.8687260895692
 30
0.0
 40
2.7
  0
CIRCLE
  5
1E55
330
3B0D
100
AcDbEntity
  8
Deckel oben
100
AcDbCircle
 10
-165.1596829036006
 20
306.8687260895692
 30
0.0
 40
2.7
  0
LINE
  5
1E5A
330
3B0D
100
AcDbEntity
  8
Deckel oben
100
AcDbLine
 10
-202.658198484967
 20
611.8687260895692
 30
0.0
 11
-192.6581984849669
 21
611.8687260895692
 31
0.0
  0
LINE
  5
1E5B
330
3B0D
100
AcDbEntity
  8
Deckel oben
100
AcDbLine
 10
-202.658198484967
 20
321.8687260895692
 30
0.0
 11
-192.658198484967
 21
321.8687260895692
 31
0.0
  0
LINE
  5
1E5C
330
3B0D
100
AcDbEntity
  8
Deckel oben
100
AcDbLine
 10
498.3922603153612
 20
321.8687260895692
 30
0.0
 11
488.3922603153612
 21
321.8687260895692
 31
0.0
  0
LINE
  5
1E5D
330
3B0D
100
AcDbEntity
  8
Deckel oben
100
AcDbLine
 10
498.3922603153612
 20
611.8687260895692
 30
0.0
 11
488.3922603153612
 21
611.8687260895692
 31
0.0
  0
LINE
  5
1E5E
330
3B0D
100
AcDbEntity
  8
Deckel oben
100
AcDbLine
 10
-190.658198484967
 20
317.9127285866645
 30
0.0
 11
-189.1461519593672
 21
316.8687260895692
 31
0.0
  0
LINE
  5
1E60
330
3B0D
100
AcDbEntity
  8
Deckel oben
100
AcDbLine
 10
-189.1461519593672
 20
316.8687260895692
 30
0.0
 11
-190.658198484967
 21
315.8630458868207
 31
0.0
  0
ARC
  5
1E61
330
3B0D
100
AcDbEntity
  8
Deckel oben
100
AcDbCircle
 10
-152.6581984849669
 20
616.875169816528
 30
0.0
 40
40.0
100
AcDbArc
 50
89.99749684005324
 51
180.0
  0
ARC
  5
1E62
330
3B0D
100
AcDbEntity
  8
Deckel oben
100
AcDbCircle
 10
448.3922603153612
 20
616.8622795391377
 30
0.0
 40
40.0
100
AcDbArc
 50
0.0
 51
89.99749684005316
  0
LINE
  5
1E63
330
3B0D
100
AcDbEntity
  8
Deckel oben
100
AcDbLine
 10
486.3922603153612
 20
315.8983146836204
 30
0.0
 11
484.8860893321294
 21
316.8687260895692
 31
0.0
  0
CIRCLE
  5
1E6D
330
3B0D
100
AcDbEntity
  8
Rueckwand
100
AcDbCircle
 10
-344.548338378326
 20
336.7846906969924
 30
0.0
 40
2.7
  0
CIRCLE
  5
1E6E
330
3B0D
100
AcDbEntity
  8
Rueckwand
100
AcDbCircle
 10
-244.558811095992
 20
336.8095201224298
 30
0.0
 40
2.7
  0
CIRCLE
  5
1E6F
330
3B0D
100
AcDbEntity
  8
Rueckwand
100
AcDbCircle
 10
-444.5617725502227
 20
336.75985533499
 30
0.0
 40
2.7
  0
CIRCLE
  5
1E70
330
3B0D
100
AcDbEntity
  8
Rueckwand
100
AcDbCircle
 10
640.2928072937666
 20
336.9597746010293
 30
0.0
 40
2.7
  0
CIRCLE
  5
1E71
330
3B0D
100
AcDbEntity
  8
Rueckwand
100
AcDbCircle
 10
540.285662337857
 20
336.9328691395688
 30
0.0
 40
2.7
  0
CIRCLE
  5
1E73
330
3B0D
100
AcDbEntity
  8
Rueckwand
100
AcDbCircle
 10
740.2693265296045
 20
336.9866718230871
 30
0.0
 40
2.7
  0
CIRCLE
  5
1E74
330
3B0D
100
AcDbEntity
  8
Rueckwand
100
AcDbCircle
 10
-165.1596829036006
 20
336.8687260895692
 30
0.0
 40
2.7
  0
CIRCLE
  5
1E75
330
3B0D
100
AcDbEntity
  8
Rueckwand
100
AcDbCircle
 10
460.9040738357078
 20
336.8687260895692
 30
0.0
 40
2.7
  0
CIRCLE
  5
1E76
330
3B0D
100
AcDbEntity
  8
Rueckwand
100
AcDbCircle
 10
-344.3960565718854
 20
-306.4644569080128
 30
0.0
 40
2.7
  0
CIRCLE
  5
1E77
330
3B0D
100
AcDbEntity
  8
Rueckwand
100
AcDbCircle
 10
-244.4065292895515
 20
-306.4396274825754
 30
0.0
 40
2.7
  0
CIRCLE
  5
1E78
330
3B0D
100
AcDbEntity
  8
Rueckwand
100
AcDbCircle
 10
-444.4094907437821
 20
-306.4892922700152
 30
0.0
 40
2.7
  0
CIRCLE
  5
1E79
330
3B0D
100
AcDbEntity
  8
Rueckwand
100
AcDbCircle
 10
640.4450891002073
 20
-306.2893730039759
 30
0.0
 40
2.7
  0
CIRCLE
  5
1E7A
330
3B0D
100
AcDbEntity
  8
Rueckwand
100
AcDbCircle
 10
540.4379441442977
 20
-306.3162784654364
 30
0.0
 40
2.7
  0
CIRCLE
  5
1E7C
330
3B0D
100
AcDbEntity
  8
Rueckwand
100
AcDbCircle
 10
740.4216083360452
 20
-306.2624757819181
 30
0.0
 40
2.7
  0
CIRCLE
  5
1E7D
330
3B0D
100
AcDbEntity
  8
Rueckwand
100
AcDbCircle
 10
-165.00740109716
 20
-306.380421515436
 30
0.0
 40
2.7
  0
CIRCLE
  5
1E7E
330
3B0D
100
AcDbEntity
  8
Rueckwand
100
AcDbCircle
 10
460.9563556421484
 20
-306.380421515436
 30
0.0
 40
2.7
  0
LINE
  5
1E8A
330
3B0D
100
AcDbEntity
  8
Rueckwand
100
AcDbLine
 10
808.9023898137116
 20
-302.1640360042787
 30
0.0
 11
808.739383599588
 21
302.7273035102241
 31
0.0
  0
LINE
  5
1E8B
330
3B0D
100
AcDbEntity
  8
Rueckwand
100
AcDbLine
 10
-512.9551178809394
 20
302.5872462956794
 30
0.0
 11
-512.8046627858421
 21
-302.304093152597
 31
0.0
  0
LINE
  5
1E94
330
3B0D
100
AcDbEntity
  8
Rueckwand
100
AcDbLine
 10
-495.3680062780001
 20
347.5916944824461
 30
0.0
 11
-494.4095196108049
 21
346.0715058961896
 31
0.0
  0
LINE
  5
1E95
330
3B0D
100
AcDbEntity
  8
Rueckwand
100
AcDbLine
 10
-494.4095196108049
 20
346.0715058961896
 30
0.0
 11
-493.4847394603219
 21
347.5917421580456
 31
0.0
  0
LINE
  5
1E96
330
3B0D
100
AcDbEntity
  8
Rueckwand
100
AcDbLine
 10
-194.69157301252
 20
347.6070886586592
 30
0.0
 11
-193.6912860507497
 21
346.0993497144101
 31
0.0
  0
LINE
  5
1E98
330
3B0D
100
AcDbEntity
  8
Rueckwand
100
AcDbLine
 10
-193.6912860507497
 20
346.0993497144102
 30
0.0
 11
-192.8183782151634
 21
347.607440839913
 31
0.0
  0
LINE
  5
1E99
330
3B0D
100
AcDbEntity
  8
Rueckwand
100
AcDbLine
 10
488.4146443316896
 20
347.7365786179031
 30
0.0
 11
489.3588467811259
 21
346.2556890531069
 31
0.0
  0
LINE
  5
1E9A
330
3B0D
100
AcDbEntity
  8
Rueckwand
100
AcDbLine
 10
489.3588467811259
 20
346.2556890531069
 30
0.0
 11
490.2947188249259
 21
347.7368594348213
 31
0.0
  0
LINE
  5
1E9B
330
3B0D
100
AcDbEntity
  8
Rueckwand
100
AcDbLine
 10
789.253465551126
 20
347.7228994658986
 30
0.0
 11
790.2100432198383
 21
346.2642560212236
 31
0.0
  0
LINE
  5
1E9C
330
3B0D
100
AcDbEntity
  8
Rueckwand
100
AcDbLine
 10
790.2100432198383
 20
346.2642560212236
 30
0.0
 11
791.1334746758705
 21
347.7228546639121
 31
0.0
  0
LINE
  5
1E9D
330
3B0D
100
AcDbEntity
  8
Rueckwand
100
AcDbLine
 10
791.3197498721595
 20
-317.1603667662085
 30
0.0
 11
790.3543780469352
 21
-315.6585065061517
 31
0.0
  0
LINE
  5
1E9E
330
3B0D
100
AcDbEntity
  8
Rueckwand
100
AcDbLine
 10
790.3543780469352
 20
-315.6585065061517
 30
0.0
 11
789.3803883294561
 21
-317.157396544359
 31
0.0
  0
LINE
  5
1E9F
330
3B0D
100
AcDbEntity
  8
Rueckwand
100
AcDbLine
 10
490.6020078202041
 20
-317.1766309665949
 30
0.0
 11
489.671167647813
 21
-315.7338167688912
 31
0.0
  0
LINE
  5
1EA0
330
3B0D
100
AcDbEntity
  8
Rueckwand
100
AcDbLine
 10
489.671167647813
 20
-315.7338167688912
 30
0.0
 11
488.7361907801294
 21
-317.1770130673786
 31
0.0
  0
LINE
  5
1EA1
330
3B0D
100
AcDbEntity
  8
Rueckwand
100
AcDbLine
 10
-192.4577501932664
 20
-317.3061373953064
 30
0.0
 11
-193.3789826908076
 21
-315.8547307473322
 31
0.0
  0
LINE
  5
1EA2
330
3B0D
100
AcDbEntity
  8
Rueckwand
100
AcDbLine
 10
-193.3789826908076
 20
-315.8547307473322
 30
0.0
 11
-194.2741888797664
 21
-317.3064007632615
 31
0.0
  0
LINE
  5
1EA3
330
3B0D
100
AcDbEntity
  8
Rueckwand
100
AcDbLine
 10
-493.3028918864767
 20
-317.2886270983091
 30
0.0
 11
-494.2651893434611
 21
-315.8313688261421
 31
0.0
  0
LINE
  5
1EA4
330
3B0D
100
AcDbEntity
  8
Rueckwand
100
AcDbLine
 10
-494.2651893434611
 20
-315.8313688261421
 30
0.0
 11
-495.2323330632863
 21
-317.2916003675206
 31
0.0
  0
LINE
  5
1EA5
330
3B0D
100
AcDbEntity
  8
Rueckwand
100
AcDbLine
 10
-497.8002152586185
 20
-317.2996443062848
 30
0.0
 11
-495.2323330632863
 21
-317.2916003675206
 31
0.0
  0
LINE
  5
1EA9
330
3B0D
100
AcDbEntity
  8
Rueckwand
100
AcDbLine
 10
793.9023904732571
 20
-317.1684841910454
 30
0.0
 11
791.3197498721595
 21
-317.1603667662085
 31
0.0
  0
LINE
  5
1EAA
330
3B0D
100
AcDbEntity
  8
Rueckwand
100
AcDbLine
 10
793.7349360723642
 20
347.722854663912
 30
0.0
 11
791.1334746758705
 21
347.7228546639121
 31
0.0
  0
LINE
  5
1EAE
330
3B0D
100
AcDbEntity
  8
Rueckwand
100
AcDbLine
 10
-495.3680062780001
 20
347.5916944824461
 30
0.0
 11
-497.9551185404849
 21
347.5916944824461
 31
0.0
  0
LINE
  5
1EC1
330
3B0D
100
AcDbEntity
  8
Haube
100
AcDbLine
 10
-242.5825841647354
 20
-228.0851960291549
 30
0.0
 11
-233.2969260835719
 21
-228.0716381475218
 31
0.0
  0
LINE
  5
1EC3
330
3B0D
100
AcDbEntity
  8
Haube
100
AcDbLine
 10
-242.5936310243619
 20
245.9067818850074
 30
0.0
 11
-233.532952350161
 21
245.9222704806902
 31
0.0
  0
LINE
  5
1EC6
330
3B0D
100
AcDbEntity
  8
Haube
100
AcDbLine
 10
538.5381850236015
 20
245.8719581789989
 30
0.0
 11
529.3528762283662
 21
245.7702485317743
 31
0.0
  0
LINE
  5
1EC7
330
3B0D
100
AcDbEntity
  8
Haube
100
AcDbLine
 10
529.16278595122
 20
-228.0543370888525
 30
0.0
 11
538.503394463898
 21
-228.0873069800946
 31
0.0
  0
LINE
  5
1ECD
330
3B0D
100
AcDbEntity
  8
Haube
100
AcDbLine
 10
-228.3042361639114
 20
-223.0618220102214
 30
0.0
 11
-228.3201871373787
 21
-214.9413738143344
 31
0.0
  0
LINE
  5
1ECE
330
3B0D
100
AcDbEntity
  8
Haube
100
AcDbLine
 10
-228.5414994875277
 20
259.0246267689125
 30
0.0
 11
-228.5414994875277
 21
250.9222631753291
 31
0.0
  0
LINE
  5
1ECF
330
3B0D
100
AcDbEntity
  8
Haube
100
AcDbLine
 10
524.2976050963017
 20
250.7397979251628
 30
0.0
 11
524.2490932652053
 21
258.7863055434244
 31
0.0
  0
LINE
  5
1ED1
330
3B0D
100
AcDbEntity
  8
Haube
100
AcDbLine
 10
524.247153360353
 20
-214.9404952137041
 30
0.0
 11
524.1806044159766
 21
-223.0131508934393
 31
0.0
  0
ARC
  5
1ED7
330
3B0D
100
AcDbEntity
  8
Haube
100
AcDbCircle
 10
-233.5414994875277
 20
250.9222631753291
 30
0.0
 40
5.0
100
AcDbArc
 50
270.0979430273066
 51
0.0
  0
ARC
  5
1ED8
330
3B0D
100
AcDbEntity
  8
Haube
100
AcDbCircle
 10
-233.3042265177808
 20
-223.0716434771586
 30
0.0
 40
5.0
100
AcDbArc
 50
270.08365684348
 51
0.1125457932024635
  0
ARC
  5
1ED9
330
3B0D
100
AcDbEntity
  8
Haube
100
AcDbCircle
 10
529.1804345261562
 20
-223.0543682361693
 30
0.0
 40
5.0
100
AcDbArc
 50
179.5276786942472
 51
269.7977618084014
  0
ARC
  5
1EDA
330
3B0D
100
AcDbEntity
  8
Haube
100
AcDbCircle
 10
529.2975142287867
 20
250.7699420272801
 30
0.0
 40
5.0
100
AcDbArc
 50
180.345428058255
 51
270.6344147477125
  0
ARC
  5
1EDB
330
3B0D
100
AcDbEntity
  8
Haube
100
AcDbCircle
 10
527.2512245977049
 20
258.80441660357
 30
0.0
 40
3.0
100
AcDbArc
 50
0.1096247914410346
 51
90.6447607559111
  0
ARC
  5
1EDC
330
3B0D
100
AcDbEntity
  8
Haube
100
AcDbCircle
 10
527.2478436719467
 20
-214.9652252657765
 30
0.0
 40
3.0
100
AcDbArc
 50
359.2106230071611
 51
90.02557012472232
  0
ARC
  5
1EDD
330
3B0D
100
AcDbEntity
  8
Haube
100
AcDbCircle
 10
527.2470514264605
 20
-214.9652256193421
 30
0.0
 40
3.0
100
AcDbArc
 50
90.02557012472232
 51
179.527678694248
  0
ARC
  5
1EDE
330
3B0D
100
AcDbEntity
  8
Haube
100
AcDbCircle
 10
527.2490387446962
 20
258.8043920046948
 30
0.0
 40
3.0
100
AcDbArc
 50
90.6447607559111
 51
180.345428058255
  0
ARC
  5
1EDF
330
3B0D
100
AcDbEntity
  8
Haube
100
AcDbCircle
 10
-231.543165826327
 20
259.0246350871031
 30
0.0
 40
3.0
100
AcDbArc
 50
89.7139877807765
 51
180.2701661321744
  0
ARC
  5
1EE0
330
3B0D
100
AcDbEntity
  8
Haube
100
AcDbCircle
 10
-231.5414994875277
 20
259.0246267689125
 30
0.0
 40
3.0
100
AcDbArc
 50
0.0
 51
89.71398778077595
  0
ARC
  5
1EE1
330
3B0D
100
AcDbEntity
  8
Haube
100
AcDbCircle
 10
-231.3215490607112
 20
-214.9472533157646
 30
0.0
 40
3.0
100
AcDbArc
 50
89.43955965137205
 51
180.3930611361841
  0
ARC
  5
1EE2
330
3B0D
100
AcDbEntity
  8
Haube
100
AcDbCircle
 10
-231.3201813497004
 20
-214.9472666944967
 30
0.0
 40
3.0
100
AcDbArc
 50
0.1125457932024635
 51
89.43955965137151
  0
LINE
  5
1F2B
330
3B0D
100
AcDbEntity
  8
Boardhalter
100
AcDbLine
 10
-185.5059166785264
 20
-545.1804215154359
 30
0.0
 11
-184.1059166785264
 21
-544.3804215154361
 31
0.0
  0
LINE
  5
1F2C
330
3B0D
100
AcDbEntity
  8
Boardhalter
100
AcDbLine
 10
-184.1059166785264
 20
-544.3804215154361
 30
0.0
 11
-185.5059166785264
 21
-543.5804215154361
 31
0.0
  0
LINE
  5
1F2D
330
3B0D
100
AcDbEntity
  8
Boardhalter
100
AcDbLine
 10
77.54454212180175
 20
-545.1804215154359
 30
0.0
 11
76.14454212180175
 21
-544.3804215154361
 31
0.0
  0
LINE
  5
1F2E
330
3B0D
100
AcDbEntity
  8
Boardhalter
100
AcDbLine
 10
76.14454212180175
 20
-544.3804215154361
 30
0.0
 11
77.54454212180175
 21
-543.5804215154361
 31
0.0
  0
LINE
  5
1F31
330
3B0D
100
AcDbEntity
  8
Boardhalter
100
AcDbLine
 10
-185.5059166785264
 20
-559.3804215154361
 30
0.0
 11
-185.5059166785264
 21
-545.1804215154359
 31
0.0
  0
LINE
  5
1F32
330
3B0D
100
AcDbEntity
  8
Boardhalter
100
AcDbLine
 10
77.54454212180175
 20
-559.380421515436
 30
0.0
 11
77.54454212180175
 21
-545.1804215154359
 31
0.0
  0
ARC
  5
1F34
330
3B0D
100
AcDbEntity
  8
Boardhalter
100
AcDbCircle
 10
-180.5059166785264
 20
-559.3804215154361
 30
0.0
 40
5.0
100
AcDbArc
 50
180.0
 51
270.0
  0
ARC
  5
1F35
330
3B0D
100
AcDbEntity
  8
Boardhalter
100
AcDbCircle
 10
72.54454212180175
 20
-559.380421515436
 30
0.0
 40
5.0
100
AcDbArc
 50
270.0000000000002
 51
0.0
  0
ARC
  5
1F36
330
3B0D
100
AcDbEntity
  8
Boardhalter
100
AcDbCircle
 10
72.54454212180175
 20
-348.3453300609353
 30
0.0
 40
5.0
100
AcDbArc
 50
0.0
 51
90.0
  0
ARC
  5
1F37
330
3B0D
100
AcDbEntity
  8
Boardhalter
100
AcDbCircle
 10
-180.5059166785264
 20
-348.3453300609353
 30
0.0
 40
5.0
100
AcDbArc
 50
90.00000000000016
 51
180.0
  0
CIRCLE
  5
1F39
330
3B0D
100
AcDbEntity
  8
Boardhalter
100
AcDbCircle
 10
-152.0
 20
-539.0
 30
0.0
 40
2.5
  0
CIRCLE
  5
1F3A
330
3B0D
100
AcDbEntity
  8
Boardhalter
100
AcDbCircle
 10
12.51716957777444
 20
-538.9946390928088
 30
0.0
 40
2.5
  0
CIRCLE
  5
1F3B
330
3B0D
100
AcDbEntity
  8
Boardhalter
100
AcDbCircle
 10
12.49818779711795
 20
-372.9940395297875
 30
0.0
 40
2.5
  0
CIRCLE
  5
1F3F
330
3B0D
100
AcDbEntity
  8
Boardhalter
100
AcDbCircle
 10
-152.0
 20
-373.0
 30
0.0
 40
2.5
  0
LINE
  5
1F45
330
3B0D
100
AcDbEntity
  8
Deckel unten
100
AcDbLine
 10
-77.06058961235976
 20
-567.9044413381771
 30
0.0
 11
-114.0050556070985
 21
-567.9044413381771
 31
0.0
  0
LINE
  5
1F47
330
3B0D
100
AcDbEntity
  8
Boardhalter
100
AcDbLine
 10
-116.0050556070985
 20
-564.380421515436
 30
0.0
 11
-116.0050556070985
 21
-564.380421515436
 31
0.0
  0
LINE
  5
1F49
330
3B0D
100
AcDbEntity
  8
Boardhalter
100
AcDbLine
 10
-116.0050556070985
 20
-551.4621754662742
 30
0.0
 11
-116.0050556070985
 21
-551.4621754662742
 31
0.0
  0
LINE
  5
1F4B
330
3B0D
100
AcDbEntity
  8
Boardhalter
100
AcDbLine
 10
-75.06058961235976
 20
-551.4621754662742
 30
0.0
 11
-75.06058961235976
 21
-551.4621754662742
 31
0.0
  0
LINE
  5
1F4D
330
3B0D
100
AcDbEntity
  8
Boardhalter
100
AcDbLine
 10
-75.06058961235976
 20
-564.380421515436
 30
0.0
 11
-75.06058961235976
 21
-564.380421515436
 31
0.0
  0
LINE
  5
1F52
330
3B0D
100
AcDbEntity
  8
Boardhalter
100
AcDbLine
 10
-73.06058961235976
 20
-564.380421515436
 30
0.0
 11
12.54454212180177
 21
-564.380421515436
 31
0.0
  0
ARC
  5
1F54
330
3B0D
100
AcDbEntity
  8
Boardhalter
100
AcDbCircle
 10
-118.0050556070985
 20
-562.380421515436
 30
0.0
 40
2.0
100
AcDbArc
 50
270.0000000000002
 51
0.0
  0
ARC
  5
1F55
330
3B0D
100
AcDbEntity
  8
Boardhalter
100
AcDbCircle
 10
-73.06058961235976
 20
-562.380421515436
 30
0.0
 40
2.0
100
AcDbArc
 50
180.0
 51
270.0
  0
LINE
  5
1F5A
330
3B0D
100
AcDbEntity
  8
Deckel unten
100
AcDbLine
 10
-114.0050556070985
 20
-550.4621754662742
 30
0.0
 11
-77.06058961235976
 21
-550.4621754662742
 31
0.0
  0
LINE
  5
1F5B
330
3B0D
100
AcDbEntity
  8
Deckel unten
100
AcDbLine
 10
-116.0050556070985
 20
-565.904441338177
 30
0.0
 11
-116.0050556070985
 21
-552.4621754662742
 31
0.0
  0
LINE
  5
1F5C
330
3B0D
100
AcDbEntity
  8
Deckel unten
100
AcDbLine
 10
-75.06058961235976
 20
-552.4621754662742
 30
0.0
 11
-75.06058961235976
 21
-565.9044413381771
 31
0.0
  0
LINE
  5
1F5D
330
3B0D
100
AcDbEntity
  8
Boardhalter
100
AcDbLine
 10
-114.0050556070985
 20
-550.4621754662742
 30
0.0
 11
-77.06058961235976
 21
-550.4621754662742
 31
0.0
  0
LINE
  5
1F60
330
3B0D
100
AcDbEntity
  8
Boardhalter
100
AcDbLine
 10
-116.0050556070985
 20
-552.4621754662742
 30
0.0
 11
-116.0050556070985
 21
-562.380421515436
 31
0.0
  0
LINE
  5
1F61
330
3B0D
100
AcDbEntity
  8
Boardhalter
100
AcDbLine
 10
-75.06058961235976
 20
-562.380421515436
 30
0.0
 11
-75.06058961235976
 21
-552.4621754662742
 31
0.0
  0
ARC
  5
2028
330
3B0D
100
AcDbEntity
  8
Batterieboden
100
AcDbCircle
 10
435.9426020308779
 20
89.92654550397421
 30
0.0
 40
5.0
100
AcDbArc
 50
180.0
 51
270.0
  0
LINE
  5
202B
330
3B0D
100
AcDbEntity
  8
Batterieboden
100
AcDbLine
 10
435.9004440005438
 20
260.0687238222806
 30
0.0
 11
440.8582859702097
 21
260.0687238222806
 31
0.0
  0
ARC
  5
202D
330
3B0D
100
AcDbEntity
  8
Batterieboden
100
AcDbCircle
 10
435.9004440005438
 20
255.0687238222806
 30
0.0
 40
5.0
100
AcDbArc
 50
90.0
 51
180.0
  0
LINE
  5
2035
330
3B0D
100
AcDbEntity
  8
Batthalter oben
100
AcDbLine
 10
100.1876354970259
 20
43.43184021945581
 30
0.0
 11
-159.8123645029743
 21
43.43184021945581
 31
0.0
  0
LINE
  5
2036
330
3B0D
100
AcDbEntity
  8
Batthalter oben
100
AcDbLine
 10
101.1876354970257
 20
171.7318402194556
 30
0.0
 11
94.18763549702567
 21
171.7318402194557
 31
0.0
  0
CIRCLE
  5
203B
330
3B0D
100
AcDbEntity
  8
Batthalter oben
100
AcDbCircle
 10
117.9851885626954
 20
273.6998660412185
 30
0.0
 40
3.3
  0
ARC
  5
203D
330
3B0D
100
AcDbEntity
  8
Batthalter oben
100
AcDbCircle
 10
94.03658073462327
 20
173.7318402194558
 30
0.0
 40
2.005696273428486
100
AcDbArc
 50
85.6808001570158
 51
274.3191998429839
  0
LINE
  5
203E
330
3B0D
100
AcDbEntity
  8
Batthalter oben
100
AcDbLine
 10
101.1876354970257
 20
302.0318402194556
 30
0.0
 11
101.1876354970257
 21
175.7318402194557
 31
0.0
  0
LINE
  5
203F
330
3B0D
100
AcDbEntity
  8
Batthalter oben
100
AcDbLine
 10
101.1876354970257
 20
171.7318402194556
 30
0.0
 11
101.1876354970259
 21
45.43184021945581
 31
0.0
  0
LINE
  5
2040
330
3B0D
100
AcDbEntity
  8
Batthalter oben
100
AcDbLine
 10
-160.8123645029742
 20
175.7318402194558
 30
0.0
 11
-160.8123645029742
 21
302.0318402194556
 31
0.0
  0
ARC
  5
2041
330
3B0D
100
AcDbEntity
  8
Batthalter oben
100
AcDbCircle
 10
-177.6788125317112
 20
24.60476241027311
 30
0.0
 40
10.0
100
AcDbArc
 50
180.0
 51
270.0
  0
ARC
  5
2043
330
3B0D
100
AcDbEntity
  8
Batthalter oben
100
AcDbCircle
 10
-177.6788125317109
 20
321.7876933371637
 30
0.0
 40
10.0
100
AcDbArc
 50
90.0
 51
180.0
  0
CIRCLE
  5
2044
330
3B0D
100
AcDbEntity
  8
Batthalter oben
100
AcDbCircle
 10
-177.6099175686439
 20
73.7638143976929
 30
0.0
 40
3.3
  0
CIRCLE
  5
2045
330
3B0D
100
AcDbEntity
  8
Batthalter oben
100
AcDbCircle
 10
-177.5934130289425
 20
273.7093743696391
 30
0.0
 40
3.3
  0
ARC
  5
2046
330
3B0D
100
AcDbEntity
  8
Batthalter oben
100
AcDbCircle
 10
-153.6613097405718
 20
173.7318402194556
 30
0.0
 40
2.005696273428486
100
AcDbArc
 50
265.6808001570158
 51
94.31919984298393
  0
LINE
  5
2047
330
3B0D
100
AcDbEntity
  8
Batthalter oben
100
AcDbLine
 10
-160.8123645029743
 20
45.43184021945581
 30
0.0
 11
-160.8123645029742
 21
171.7318402194557
 31
0.0
  0
LINE
  5
2048
330
3B0D
100
AcDbEntity
  8
Batthalter oben
100
AcDbLine
 10
-160.8123645029742
 20
175.7318402194558
 30
0.0
 11
-153.8123645029742
 21
175.7318402194557
 31
0.0
  0
LINE
  5
204A
330
3B0D
100
AcDbEntity
  8
Batthalter oben
100
AcDbLine
 10
-153.8123645029742
 20
171.7318402194555
 30
0.0
 11
-160.8123645029742
 21
171.7318402194557
 31
0.0
  0
LINE
  5
204C
330
3B0D
100
AcDbEntity
  8
Batthalter oben
100
AcDbLine
 10
94.18763549702567
 20
175.7318402194559
 30
0.0
 11
101.1876354970257
 21
175.7318402194557
 31
0.0
  0
CIRCLE
  5
204D
330
3B0D
100
AcDbEntity
  8
Batterieboden
100
AcDbCircle
 10
-177.5934130289425
 20
273.7093743696391
 30
0.0
 40
3.3
  0
CIRCLE
  5
204E
330
3B0D
100
AcDbEntity
  8
Batterieboden
100
AcDbCircle
 10
-177.6099175686439
 20
73.7638143976929
 30
0.0
 40
3.3
  0
CIRCLE
  5
204F
330
3B0D
100
AcDbEntity
  8
Batterieboden
100
AcDbCircle
 10
117.968684022994
 20
73.75430606927233
 30
0.0
 40
3.3
  0
CIRCLE
  5
2050
330
3B0D
100
AcDbEntity
  8
Batterieboden
100
AcDbCircle
 10
117.9851885626954
 20
273.6998660412185
 30
0.0
 40
3.3
  0
LINE
  5
209C
330
3B0D
100
AcDbEntity
  8
Haube
100
AcDbLine
 10
191.0024604715484
 20
-13.59019888558207
 30
0.0
 11
197.4172591847884
 21
-7.175252161826882
 31
0.0
  0
LINE
  5
209D
330
3B0D
100
AcDbEntity
  8
Haube
100
AcDbLine
 10
182.2862189568538
 20
-3.84005426582425
 30
0.0
 11
182.1877721030782
 21
3.75052853777042
 31
0.0
  0
LINE
  5
209E
330
3B0D
100
AcDbEntity
  8
Haube
100
AcDbLine
 10
173.1428663836715
 20
12.73939536142444
 30
0.0
 11
173.0984712224972
 21
-13.26849909884735
 31
0.0
  0
LINE
  5
209F
330
3B0D
100
AcDbEntity
  8
Haube
100
AcDbLine
 10
170.7240184785977
 20
-13.5355955568239
 30
0.0
 11
170.7862877946602
 21
-8.650901307166038
 31
0.0
  0
LINE
  5
20A0
330
3B0D
100
AcDbEntity
  8
Haube
100
AcDbLine
 10
165.6530945153255
 20
-3.230978349590123
 30
0.0
 11
156.458751840871
 21
-3.261279307015349
 31
0.0
  0
LINE
  5
20A1
330
3B0D
100
AcDbEntity
  8
Haube
100
AcDbLine
 10
156.4268483845713
 20
2.509026358869562
 30
0.0
 11
165.5829826722178
 21
2.659308146062663
 31
0.0
  0
LINE
  5
20A2
330
3B0D
100
AcDbEntity
  8
Haube
100
AcDbLine
 10
170.7477860835133
 20
8.034744020051884
 30
0.0
 11
170.7548047913465
 21
13.02063563879206
 31
0.0
  0
LINE
  5
20A3
330
3B0D
100
AcDbEntity
  8
Haube
100
AcDbLine
 10
153.2500679479173
 20
-3.807116931968119
 30
0.0
 11
153.2759369430958
 21
12.96505227771978
 31
0.0
  0
LINE
  5
20A4
330
3B0D
100
AcDbEntity
  8
Haube
100
AcDbLine
 10
153.2759369430958
 20
12.96505227771978
 30
0.0
 11
144.2363365275054
 21
12.97782309198116
 31
0.0
  0
LINE
  5
20A5
330
3B0D
100
AcDbEntity
  8
Haube
100
AcDbLine
 10
144.2363365275054
 20
12.97782309198116
 30
0.0
 11
144.2064454684313
 21
-13.35836051110304
 31
0.0
  0
LINE
  5
20A6
330
3B0D
100
AcDbEntity
  8
Haube
100
AcDbLine
 10
141.7913470529777
 20
-8.814445558921609
 30
0.0
 11
141.795653286541
 21
-13.61840752992232
 31
0.0
  0
LINE
  5
20A7
330
3B0D
100
AcDbEntity
  8
Haube
100
AcDbLine
 10
136.6595288400021
 20
-3.477857744805517
 30
0.0
 11
136.5937853258864
 21
12.99537356930036
 31
0.0
  0
LINE
  5
20A8
330
3B0D
100
AcDbEntity
  8
Haube
100
AcDbLine
 10
136.5937853258864
 20
12.99537356930036
 30
0.0
 11
127.4842344265496
 21
12.99091558197701
 31
0.0
  0
LINE
  5
20A9
330
3B0D
100
AcDbEntity
  8
Haube
100
AcDbLine
 10
127.4842344265496
 20
12.99091558197701
 30
0.0
 11
127.4770186943821
 21
-3.601124801157323
 31
0.0
  0
LINE
  5
20AA
330
3B0D
100
AcDbEntity
  8
Haube
100
AcDbLine
 10
124.5335417753631
 20
-13.71369164454301
 30
0.0
 11
124.5486182019925
 21
25.77529418575135
 31
0.0
  0
LINE
  5
20AB
330
3B0D
100
AcDbEntity
  8
Haube
100
AcDbLine
 10
124.5486182019925
 20
25.77529418575135
 30
0.0
 11
115.3893858864891
 21
25.78975009749861
 31
0.0
  0
LINE
  5
20AC
330
3B0D
100
AcDbEntity
  8
Haube
100
AcDbLine
 10
115.3893858864891
 20
25.78975009749861
 30
0.0
 11
115.4128472563787
 21
-13.69819281905743
 31
0.0
  0
LINE
  5
20AD
330
3B0D
100
AcDbEntity
  8
Haube
100
AcDbLine
 10
115.4128472563787
 20
-13.69819281905743
 30
0.0
 11
124.5335417753631
 21
-13.71369164454301
 31
0.0
  0
LINE
  5
20AE
330
3B0D
100
AcDbEntity
  8
Haube
100
AcDbLine
 10
113.0597226670315
 20
-13.76400231501706
 30
0.0
 11
113.0345078646908
 21
-9.222188386324083
 31
0.0
  0
LINE
  5
20AF
330
3B0D
100
AcDbEntity
  8
Haube
100
AcDbLine
 10
107.9682810046715
 20
-3.677714717801445
 30
0.0
 11
107.9983889796974
 21
3.855909880749999
 31
0.0
  0
LINE
  5
20B0
330
3B0D
100
AcDbEntity
  8
Haube
100
AcDbLine
 10
113.0745272844425
 20
8.424693817824306
 30
0.0
 11
113.0744748587185
 21
12.9690242773677
 31
0.0
  0
LINE
  5
20B1
330
3B0D
100
AcDbEntity
  8
Haube
100
AcDbLine
 10
98.75478228140291
 20
-3.988572749630754
 30
0.0
 11
98.76727480173
 21
3.698542320156247
 31
0.0
  0
LINE
  5
20B2
330
3B0D
100
AcDbEntity
  8
Haube
100
AcDbLine
 10
96.41560474101857
 20
-4.034883776564704
 30
0.0
 11
96.31715788724328
 21
3.555699027030272
 31
0.0
  0
LINE
  5
20B3
330
3B0D
100
AcDbEntity
  8
Haube
100
AcDbLine
 10
96.31715788724328
 20
3.555699027030272
 30
0.0
 11
95.92079175232061
 21
5.777815886872842
 31
0.0
  0
LINE
  5
20B4
330
3B0D
100
AcDbEntity
  8
Haube
100
AcDbLine
 10
87.27225216783631
 20
12.54456585068409
 30
0.0
 11
87.22785700666219
 21
-13.46332860958776
 31
0.0
  0
LINE
  5
20B5
330
3B0D
100
AcDbEntity
  8
Haube
100
AcDbLine
 10
84.91567357882509
 20
-8.84573081790639
 30
0.0
 11
84.85340426276231
 21
-13.73042506756415
 31
0.0
  0
LINE
  5
20B6
330
3B0D
100
AcDbEntity
  8
Haube
100
AcDbLine
 10
70.58813762503573
 20
-3.456108817755086
 30
0.0
 11
79.78248029949032
 21
-3.425807860330168
 31
0.0
  0
LINE
  5
20B7
330
3B0D
100
AcDbEntity
  8
Haube
100
AcDbLine
 10
84.88419057551154
 20
12.82580612805166
 30
0.0
 11
84.87717186767863
 21
7.839914509335271
 31
0.0
  0
LINE
  5
20B8
330
3B0D
100
AcDbEntity
  8
Haube
100
AcDbLine
 10
79.71236845638276
 20
2.464478635322308
 30
0.0
 11
84.87983534923148
 21
2.451280384186935
 31
0.0
  0
LINE
  5
20B9
330
3B0D
100
AcDbEntity
  8
Haube
100
AcDbLine
 10
84.87983534923148
 20
2.451280384186935
 30
0.0
 11
84.85472475970865
 21
-2.04020931378858
 31
0.0
  0
LINE
  5
20BA
330
3B0D
100
AcDbEntity
  8
Haube
100
AcDbLine
 10
84.85472475970865
 20
-2.04020931378858
 30
0.0
 11
70.57506013656509
 21
-2.090698862611424
 31
0.0
  0
LINE
  5
20BB
330
3B0D
100
AcDbEntity
  8
Haube
100
AcDbLine
 10
70.57506013656509
 20
-2.090698862611424
 30
0.0
 11
70.55623416873621
 21
2.3141968481287
 31
0.0
  0
LINE
  5
20BC
330
3B0D
100
AcDbEntity
  8
Haube
100
AcDbLine
 10
70.55623416873621
 20
2.3141968481287
 30
0.0
 11
70.89233211695624
 21
5.614376883074922
 31
0.0
  0
ARC
  5
20BD
330
3B0D
100
AcDbEntity
  8
Haube
100
AcDbCircle
 10
143.4056020138809
 20
-2.126384182185955
 30
0.0
 40
6.880115119515445
100
AcDbArc
 50
191.3283789165809
 51
256.4304130391642
  0
ARC
  5
20BE
330
3B0D
100
AcDbEntity
  8
Haube
100
AcDbCircle
 10
211.8156968258377
 20
-5.59052373418569
 30
0.0
 40
3.465335954399648
100
AcDbArc
 50
197.7375699027032
 51
291.8986864363046
  0
ARC
  5
20BF
330
3B0D
100
AcDbEntity
  8
Haube
100
AcDbCircle
 10
216.0883944025344
 20
-3.804230636789782
 30
0.0
 40
8.08908119562391
100
AcDbArc
 50
177.0088721913785
 51
200.580552897841
  0
ARC
  5
20C0
330
3B0D
100
AcDbEntity
  8
Haube
100
AcDbCircle
 10
213.7690590157002
 20
3.212183874532585
 30
0.0
 40
5.868063068148834
100
AcDbArc
 50
131.8388716045261
 51
186.7121421076549
  0
ARC
  5
20C1
330
3B0D
100
AcDbEntity
  8
Haube
100
AcDbCircle
 10
211.6534725200887
 20
5.972180212612093
 30
0.0
 40
2.415190679782093
100
AcDbArc
 50
53.02824135621637
 51
138.1348484534522
  0
ARC
  5
20C2
330
3B0D
100
AcDbEntity
  8
Haube
100
AcDbCircle
 10
210.5631028936857
 20
0.6556632360622585
 30
0.0
 40
12.4949409949153
100
AcDbArc
 50
78.22450196758898
 51
156.3088193607317
  0
ARC
  5
20C3
330
3B0D
100
AcDbEntity
  8
Haube
100
AcDbCircle
 10
210.2864295854968
 20
-2.510028425566896
 30
0.0
 40
11.50347917010731
100
AcDbArc
 50
184.4085208254215
 51
284.066119967317
  0
ARC
  5
20C4
330
3B0D
100
AcDbEntity
  8
Haube
100
AcDbCircle
 10
172.3118980061594
 20
2.858166114613544
 30
0.0
 40
9.916108101087822
100
AcDbArc
 50
5.163100577307127
 51
85.19298485882886
  0
ARC
  5
20C5
330
3B0D
100
AcDbEntity
  8
Haube
100
AcDbCircle
 10
172.6918795996966
 20
-3.681467190428549
 30
0.0
 40
9.595649929044457
100
AcDbArc
 50
272.4284921633388
 51
359.0530309185102
  0
ARC
  5
20C6
330
3B0D
100
AcDbEntity
  8
Haube
100
AcDbCircle
 10
168.0736807938927
 20
1.654430780357204
 30
0.0
 40
11.67814363559688
100
AcDbArc
 50
76.72737295063448
 51
175.8033974011186
  0
ARC
  5
20C7
330
3B0D
100
AcDbEntity
  8
Haube
100
AcDbCircle
 10
169.7756035049534
 20
3.799902196665759
 30
0.0
 40
4.344999912009093
100
AcDbArc
 50
77.07076632154028
 51
195.2188866391776
  0
ARC
  5
20C8
330
3B0D
100
AcDbEntity
  8
Haube
100
AcDbCircle
 10
170.0572816326116
 20
-4.200563228245187
 30
0.0
 40
4.509651760500534
100
AcDbArc
 50
167.58434585167
 51
279.3029508913697
  0
ARC
  5
20C9
330
3B0D
100
AcDbEntity
  8
Haube
100
AcDbCircle
 10
143.7741695396884
 20
-3.891947023989121
 30
0.0
 40
9.476278108391629
100
AcDbArc
 50
272.6145480103859
 51
0.5129092994454413
  0
ARC
  5
20CA
330
3B0D
100
AcDbEntity
  8
Haube
100
AcDbCircle
 10
138.3282096102869
 20
-3.332627568771342
 30
0.0
 40
10.85451219803143
100
AcDbArc
 50
181.4174130709465
 51
288.6294980061915
  0
ARC
  5
20CB
330
3B0D
100
AcDbEntity
  8
Haube
100
AcDbCircle
 10
167.9281960331912
 20
-2.377037860110693
 30
0.0
 40
11.50347917011079
100
AcDbArc
 50
184.4085208254337
 51
284.0661199672955
  0
ARC
  5
20CC
330
3B0D
100
AcDbEntity
  8
Haube
100
AcDbCircle
 10
112.4650170353083
 20
-4.655704134365192
 30
0.0
 40
4.601858127771637
100
AcDbArc
 50
167.7298961013555
 51
277.1087121812191
  0
ARC
  5
20CD
330
3B0D
100
AcDbEntity
  8
Haube
100
AcDbCircle
 10
112.3045969414815
 20
4.17581474239454
 30
0.0
 40
4.318074354458641
100
AcDbArc
 50
79.7290062631687
 51
184.2486546998726
  0
ARC
  5
20CE
330
3B0D
100
AcDbEntity
  8
Haube
100
AcDbCircle
 10
110.0537756772743
 20
1.955448331134624
 30
0.0
 40
11.42030991997249
100
AcDbArc
 50
74.66261361716388
 51
171.2205688462594
  0
ARC
  5
20CF
330
3B0D
100
AcDbEntity
  8
Haube
100
AcDbCircle
 10
109.7680526509381
 20
-3.22655971224163
 30
0.0
 40
11.03960090318615
100
AcDbArc
 50
183.9580122274741
 51
287.3476798575859
  0
ARC
  5
20D0
330
3B0D
100
AcDbEntity
  8
Haube
100
AcDbCircle
 10
86.37573712809386
 20
2.488539370944539
 30
0.0
 40
10.09591044818201
100
AcDbArc
 50
19.01422321274
 51
84.90543456563968
  0
ARC
  5
20D1
330
3B0D
100
AcDbEntity
  8
Haube
100
AcDbCircle
 10
86.82126538386126
 20
-3.876296701168184
 30
0.0
 40
9.595649929045132
100
AcDbArc
 50
272.42849216334
 51
359.0530309185057
  0
ARC
  5
20D2
330
3B0D
100
AcDbEntity
  8
Haube
100
AcDbCircle
 10
82.05758181735233
 20
-2.571867370853346
 30
0.0
 40
11.50347917010696
100
AcDbArc
 50
184.4085208254222
 51
284.066119967318
  0
ARC
  5
20D3
330
3B0D
100
AcDbEntity
  8
Haube
100
AcDbCircle
 10
84.1866674167781
 20
-4.395392738985026
 30
0.0
 40
4.509651760502186
100
AcDbArc
 50
167.5843458516735
 51
279.3029508913417
  0
ARC
  5
20D4
330
3B0D
100
AcDbEntity
  8
Haube
100
AcDbCircle
 10
83.9049892890921
 20
3.605072685931597
 30
0.0
 40
4.344999911985449
100
AcDbArc
 50
77.0707663211218
 51
195.2188866393473
  0
ARC
  5
20D5
330
3B0D
100
AcDbEntity
  8
Haube
100
AcDbCircle
 10
82.33425512557154
 20
0.5938242907506377
 30
0.0
 40
12.49494099495361
100
AcDbArc
 50
78.22450196776478
 51
156.308819360674
  0
ARC
  5
20D6
330
3B0D
100
AcDbEntity
  8
Haube
100
AcDbCircle
 10
215.0399477124001
 20
3.097297231618916
 30
0.0
 40
9.520282981283255
100
AcDbArc
 50
3.132517563350226
 51
87.22356787278966
  0
ARC
  5
20D7
330
3B0D
100
AcDbEntity
  8
Haube
100
AcDbCircle
 10
215.0501131520058
 20
-3.814457755882756
 30
0.0
 40
9.595649929044734
100
AcDbArc
 50
272.4284921633383
 51
359.0530309185115
  0
LINE
  5
20D8
330
3B0D
100
AcDbEntity
  8
Haube
100
AcDbLine
 10
224.5460056553874
 20
3.617537972315655
 30
0.0
 11
224.6444525091628
 21
-3.973044831278611
 31
0.0
  0
LINE
  5
20D9
330
3B0D
100
AcDbEntity
  8
Haube
100
AcDbLine
 10
215.4567047748064
 20
-13.40148966430182
 30
0.0
 11
215.5010999359806
 21
12.60640479596998
 31
0.0
  0
LINE
  5
20DA
330
3B0D
100
AcDbEntity
  8
Haube
100
AcDbLine
 10
213.1130383436558
 20
12.8876450733373
 30
0.0
 11
213.1060196358229
 21
7.901753454621311
 31
0.0
  0
LINE
  5
20DB
330
3B0D
100
AcDbEntity
  8
Haube
100
AcDbLine
 10
207.941216224527
 20
2.526317580607942
 30
0.0
 11
213.1086831173757
 21
2.513119329472566
 31
0.0
  0
LINE
  5
20DC
330
3B0D
100
AcDbEntity
  8
Haube
100
AcDbLine
 10
213.1086831173757
 20
2.513119329472566
 30
0.0
 11
213.0835725278528
 21
-1.978370368502846
 31
0.0
  0
LINE
  5
20DD
330
3B0D
100
AcDbEntity
  8
Haube
100
AcDbLine
 10
213.0835725278528
 20
-1.978370368502846
 30
0.0
 11
198.8039079047093
 21
-2.028859917325639
 31
0.0
  0
LINE
  5
20DE
330
3B0D
100
AcDbEntity
  8
Haube
100
AcDbLine
 10
198.8039079047093
 20
-2.028859917325639
 30
0.0
 11
198.7850819368804
 21
2.376035793415253
 31
0.0
  0
LINE
  5
20DF
330
3B0D
100
AcDbEntity
  8
Haube
100
AcDbLine
 10
198.7850819368804
 20
2.376035793415253
 30
0.0
 11
199.1211798851003
 21
5.676215828360655
 31
0.0
  0
LINE
  5
20E0
330
3B0D
100
AcDbEntity
  8
Haube
100
AcDbLine
 10
208.0113280676345
 20
-3.363968915044074
 30
0.0
 11
198.8169853931799
 21
-3.394269872469403
 31
0.0
  0
LINE
  5
20E1
330
3B0D
100
AcDbEntity
  8
Haube
100
AcDbLine
 10
213.108151085823
 20
-8.805817696283157
 30
0.0
 11
213.0822520309066
 21
-13.66858612227852
 31
0.0
  0
LINE
  5
20E2
330
3B0D
100
AcDbEntity
  8
Haube
100
AcDbLine
 10
197.4172591847884
 20
-7.175252161826882
 30
0.0
 11
191.0023124610332
 21
-0.7604534485870549
 31
0.0
  0
LINE
  5
20E3
330
3B0D
100
AcDbEntity
  8
Haube
100
AcDbLine
 10
191.0023124610332
 20
-0.7604534485870549
 30
0.0
 11
184.5875137477933
 21
-7.175400172342086
 31
0.0
  0
LINE
  5
20E4
330
3B0D
100
AcDbEntity
  8
Haube
100
AcDbLine
 10
184.5875137477933
 20
-7.175400172342086
 30
0.0
 11
191.0024604715484
 21
-13.59019888558207
 31
0.0
  0
LINE
  5
210B
330
3B0D
100
AcDbEntity
  8
Batterieboden
100
AcDbLine
 10
204.9361879047599
 20
336.8142641418434
 30
0.0
 11
204.9361879047599
 21
345.8142641418434
 31
0.0
  0
LINE
  5
210D
330
3B0D
100
AcDbEntity
  8
Batterieboden
100
AcDbLine
 10
95.93618790475996
 20
345.8142641418434
 30
0.0
 11
95.93618790475996
 21
336.8142641418434
 31
0.0
  0
ARC
  5
210E
330
3B0D
100
AcDbEntity
  8
Batterieboden
100
AcDbCircle
 10
100.93618790476
 20
345.8142641418434
 30
0.0
 40
5.0
100
AcDbArc
 50
90.00000000000009
 51
180.0
  0
ARC
  5
210F
330
3B0D
100
AcDbEntity
  8
Batterieboden
100
AcDbCircle
 10
100.9361879047599
 20
336.8142641418434
 30
0.0
 40
5.0
100
AcDbArc
 50
180.0
 51
270.0
  0
ARC
  5
2110
330
3B0D
100
AcDbEntity
  8
Batterieboden
100
AcDbCircle
 10
199.9361879047599
 20
336.8142641418434
 30
0.0
 40
5.0
100
AcDbArc
 50
269.9999999999999
 51
0.0
  0
ARC
  5
2111
330
3B0D
100
AcDbEntity
  8
Batterieboden
100
AcDbCircle
 10
199.9361879047599
 20
345.8142641418434
 30
0.0
 40
5.0
100
AcDbArc
 50
0.0
 51
90.0
  0
LINE
  5
212D
330
3B0D
100
AcDbEntity
  8
Batterieboden
100
AcDbLine
 10
200.4249083223692
 20
314.2772341578884
 30
0.0
 11
174.255561577859
 21
314.2772341578884
 31
0.0
  0
LINE
  5
212F
330
3B0D
100
AcDbEntity
  8
Batterieboden
100
AcDbLine
 10
174.255561577859
 20
302.0496441014561
 30
0.0
 11
200.4249083223692
 21
302.0496441014561
 31
0.0
  0
ARC
  5
2131
330
3B0D
100
AcDbEntity
  8
Batterieboden
100
AcDbCircle
 10
174.255561577859
 20
312.2772341578884
 30
0.0
 40
2.0
100
AcDbArc
 50
90.0
 51
180.0
  0
ARC
  5
2132
330
3B0D
100
AcDbEntity
  8
Batterieboden
100
AcDbCircle
 10
200.4249083223692
 20
312.2772341578884
 30
0.0
 40
2.0
100
AcDbArc
 50
0.0
 51
90.0
  0
ARC
  5
2133
330
3B0D
100
AcDbEntity
  8
Batterieboden
100
AcDbCircle
 10
200.4249083223692
 20
304.0496441014561
 30
0.0
 40
2.0
100
AcDbArc
 50
270.0
 51
0.0
  0
ARC
  5
2134
330
3B0D
100
AcDbEntity
  8
Batterieboden
100
AcDbCircle
 10
174.255561577859
 20
304.0496441014561
 30
0.0
 40
2.0
100
AcDbArc
 50
180.0
 51
270.0
  0
LINE
  5
213C
330
3B0D
100
AcDbEntity
  8
Deckel unten
100
AcDbLine
 10
-190.5059166785264
 20
-306.380421515436
 30
0.0
 11
-190.5115688781703
 21
-282.2416424145711
 31
0.0
  0
LINE
  5
213D
330
3B0D
100
AcDbEntity
  8
Deckel unten
100
AcDbLine
 10
486.5445421218018
 20
-306.380421515436
 30
0.0
 11
486.5388899221579
 21
-282.2416424145711
 31
0.0
  0
ARC
  5
2141
330
3B0D
100
AcDbEntity
  8
WR Halter
100
AcDbCircle
 10
-127.5085635317176
 20
-440.8664722597948
 30
0.0
 40
10.0
100
AcDbArc
 50
90.0
 51
180.0
  0
LINE
  5
2146
330
3B0D
100
AcDbEntity
  8
WR Halter
100
AcDbLine
 10
77.4914364682826
 20
-440.8664722597949
 30
0.0
 11
77.4914364682825
 21
-468.8664722597949
 31
0.0
  0
LINE
  5
2147
330
3B0D
100
AcDbEntity
  8
WR Halter
100
AcDbLine
 10
77.4914364682825
 20
-469.866472259795
 30
0.0
 11
77.4914364682826
 21
-497.8664722597948
 31
0.0
  0
LINE
  5
2148
330
3B0D
100
AcDbEntity
  8
WR Halter
100
AcDbLine
 10
-137.5085635317175
 20
-440.8664722597949
 30
0.0
 11
-137.5085635317174
 21
-468.8664722597947
 31
0.0
  0
LINE
  5
2149
330
3B0D
100
AcDbEntity
  8
WR Halter
100
AcDbLine
 10
-127.5085635317176
 20
-507.8664722597947
 30
0.0
 11
67.49143646828264
 21
-507.8664722597949
 31
0.0
  0
LINE
  5
214A
330
3B0D
100
AcDbEntity
  8
WR Halter
100
AcDbLine
 10
-137.5085635317175
 20
-469.8664722597947
 30
0.0
 11
-137.5085635317174
 21
-497.8664722597948
 31
0.0
  0
LINE
  5
214B
330
3B0D
100
AcDbEntity
  8
WR Halter
100
AcDbLine
 10
77.4914364682825
 20
-469.866472259795
 30
0.0
 11
75.4914364682825
 21
-469.3664722597949
 31
0.0
  0
LINE
  5
214C
330
3B0D
100
AcDbEntity
  8
WR Halter
100
AcDbLine
 10
75.4914364682825
 20
-469.3664722597949
 30
0.0
 11
77.4914364682825
 21
-468.8664722597949
 31
0.0
  0
LINE
  5
214D
330
3B0D
100
AcDbEntity
  8
WR Halter
100
AcDbLine
 10
-137.5085635317175
 20
-469.8664722597947
 30
0.0
 11
-135.5085635317174
 21
-469.3664722597948
 31
0.0
  0
LINE
  5
214E
330
3B0D
100
AcDbEntity
  8
WR Halter
100
AcDbLine
 10
-135.5085635317174
 20
-469.3664722597948
 30
0.0
 11
-137.5085635317174
 21
-468.8664722597947
 31
0.0
  0
ARC
  5
214F
330
3B0D
100
AcDbEntity
  8
WR Halter
100
AcDbCircle
 10
-127.5085635317176
 20
-497.8664722597947
 30
0.0
 40
10.0
100
AcDbArc
 50
180.0
 51
270.0
  0
ARC
  5
2150
330
3B0D
100
AcDbEntity
  8
WR Halter
100
AcDbCircle
 10
67.49143646828264
 20
-497.8664722597947
 30
0.0
 40
10.0
100
AcDbArc
 50
270.0
 51
0.0
  0
LINE
  5
2151
330
3B0D
100
AcDbEntity
  8
WR Halter
100
AcDbLine
 10
67.49143646828259
 20
-430.8664722597949
 30
0.0
 11
-127.5085635317175
 21
-430.8664722597948
 31
0.0
  0
ARC
  5
2152
330
3B0D
100
AcDbEntity
  8
WR Halter
100
AcDbCircle
 10
67.49143646828259
 20
-440.8664722597949
 30
0.0
 40
10.0
100
AcDbArc
 50
0.0
 51
90.0
  0
ARC
  5
2162
330
3B0D
100
AcDbEntity
  8
Boardhalter
100
AcDbCircle
 10
-114.0050556070985
 20
-552.4621754662742
 30
0.0
 40
2.0
100
AcDbArc
 50
90.0
 51
180.0
  0
ARC
  5
2163
330
3B0D
100
AcDbEntity
  8
Boardhalter
100
AcDbCircle
 10
-77.06058961235976
 20
-552.4621754662742
 30
0.0
 40
2.0
100
AcDbArc
 50
0.0
 51
90.0
  0
ARC
  5
2164
330
3B0D
100
AcDbEntity
  8
Deckel unten
100
AcDbCircle
 10
-114.0050556070985
 20
-552.4621754662742
 30
0.0
 40
2.0
100
AcDbArc
 50
90.0
 51
180.0
  0
ARC
  5
2166
330
3B0D
100
AcDbEntity
  8
Deckel unten
100
AcDbCircle
 10
-77.06058961235976
 20
-552.4621754662742
 30
0.0
 40
2.0
100
AcDbArc
 50
0.0
 51
89.99999999999996
  0
ARC
  5
2167
330
3B0D
100
AcDbEntity
  8
Deckel unten
100
AcDbCircle
 10
-77.06058961235976
 20
-565.9044413381771
 30
0.0
 40
2.0
100
AcDbArc
 50
270.0
 51
0.0
  0
ARC
  5
2168
330
3B0D
100
AcDbEntity
  8
Deckel unten
100
AcDbCircle
 10
-114.0050556070985
 20
-565.904441338177
 30
0.0
 40
2.0
100
AcDbArc
 50
180.0
 51
270.0
  0
ARC
  5
2179
330
3B0D
100
AcDbEntity
  8
Boardhalter
100
AcDbCircle
 10
85.5904998588731
 20
-454.5676950620085
 30
0.0
 40
5.0
100
AcDbArc
 50
0.0
 51
90.0
  0
ARC
  5
217A
330
3B0D
100
AcDbEntity
  8
Boardhalter
100
AcDbCircle
 10
85.5904998588731
 20
-489.5804215154361
 30
0.0
 40
5.0
100
AcDbArc
 50
270.0
 51
0.0
  0
ARC
  5
2182
330
3B0D
100
AcDbEntity
  8
Boardhalter
100
AcDbCircle
 10
96.0760720647905
 20
-472.0763771283755
 30
0.0
 40
15.48557237953141
100
AcDbArc
 50
120.7872401939973
 51
239.2127598060027
  0
ARC
  5
2185
330
3B0D
100
AcDbEntity
  8
Boardhalter
100
AcDbCircle
 10
85.5904998588731
 20
-454.4777564087988
 30
0.0
 40
5.0
100
AcDbArc
 50
300.787240193997
 51
0.0
  0
ARC
  5
2186
330
3B0D
100
AcDbEntity
  8
Boardhalter
100
AcDbCircle
 10
85.5904998588731
 20
-489.6749978479521
 30
0.0
 40
5.0
100
AcDbArc
 50
0.0
 51
59.21275980600264
  0
CIRCLE
  5
218A
330
3B0D
100
AcDbEntity
  8
Boardhalter
100
AcDbCircle
 10
83.5445421218017
 20
-456.1023675967625
 30
0.0
 40
2.2
  0
CIRCLE
  5
218B
330
3B0D
100
AcDbEntity
  8
Boardhalter
100
AcDbCircle
 10
83.5445421218018
 20
-488.1718832473832
 30
0.0
 40
2.2
  0
LINE
  5
218C
330
3B0D
100
AcDbEntity
  8
Boardhalter
100
AcDbLine
 10
90.5904998588731
 20
-454.5676950620085
 30
0.0
 11
90.5904998588731
 21
-454.4777564087988
 31
0.0
  0
LINE
  5
218D
330
3B0D
100
AcDbEntity
  8
Boardhalter
100
AcDbLine
 10
90.5904998588731
 20
-489.6749978479521
 30
0.0
 11
90.5904998588731
 21
-489.5804215154361
 31
0.0
  0
LINE
  5
2192
330
3B0D
100
AcDbEntity
  8
Boardhalter
100
AcDbLine
 10
77.54454212180173
 20
-449.5676950620085
 30
0.0
 11
85.5904998588731
 21
-449.5676950620085
 31
0.0
  0
LINE
  5
2193
330
3B0D
100
AcDbEntity
  8
Boardhalter
100
AcDbLine
 10
77.54454212180175
 20
-494.5804215154361
 30
0.0
 11
85.5904998588731
 21
-494.5804215154361
 31
0.0
  0
LINE
  5
2195
330
3B0D
100
AcDbEntity
  8
Boardhalter
100
AcDbLine
 10
72.54454212180177
 20
-564.380421515436
 30
0.0
 11
12.54454212180177
 21
-564.380421515436
 31
0.0
  0
CIRCLE
  5
219B
330
3B0D
100
AcDbEntity
  8
Boardhalter
100
AcDbCircle
 10
52.54454212180175
 20
-355.8453300609353
 30
0.0
 40
2.2
  0
CIRCLE
  5
219C
330
3B0D
100
AcDbEntity
  8
Boardhalter
100
AcDbCircle
 10
52.54454212180174
 20
-455.8453300609353
 30
0.0
 40
2.2
  0
LINE
  5
21A3
330
3B0D
100
AcDbEntity
  8
Rueckwand
100
AcDbLine
 10
-443.3628581553075
 20
324.9571392252469
 30
0.0
 11
-357.3628581553075
 21
324.9571392252469
 31
0.0
  0
LINE
  5
21A4
330
3B0D
100
AcDbEntity
  8
Rueckwand
100
AcDbLine
 10
653.27623470102
 20
326.8376355507713
 30
0.0
 11
739.27623470102
 21
326.8376355507713
 31
0.0
  0
LINE
  5
21A5
330
3B0D
100
AcDbEntity
  8
Rueckwand
100
AcDbLine
 10
-443.3628581553075
 20
319.9571392252469
 30
0.0
 11
-357.3628581553075
 21
319.9571392252469
 31
0.0
  0
LINE
  5
21A6
330
3B0D
100
AcDbEntity
  8
Rueckwand
100
AcDbLine
 10
653.27623470102
 20
321.8376355507713
 30
0.0
 11
739.27623470102
 21
321.8376355507713
 31
0.0
  0
LINE
  5
21A8
330
3B0D
100
AcDbEntity
  8
Rueckwand
100
AcDbLine
 10
-330.8149995627111
 20
324.8534031448435
 30
0.0
 11
-244.8149995627111
 21
324.8534031448435
 31
0.0
  0
LINE
  5
21A9
330
3B0D
100
AcDbEntity
  8
Rueckwand
100
AcDbLine
 10
-330.8149995627111
 20
319.8534031448435
 30
0.0
 11
-244.8149995627111
 21
319.8534031448435
 31
0.0
  0
LINE
  5
21AA
330
3B0D
100
AcDbEntity
  8
Rueckwand
100
AcDbLine
 10
-445.3628581553075
 20
321.9571392252469
 30
0.0
 11
-445.3628581553075
 21
322.9571392252469
 31
0.0
  0
LINE
  5
21AB
330
3B0D
100
AcDbEntity
  8
Rueckwand
100
AcDbLine
 10
-355.3628581553075
 20
322.9571392252469
 30
0.0
 11
-355.3628581553075
 21
321.9571392252469
 31
0.0
  0
LINE
  5
21AC
330
3B0D
100
AcDbEntity
  8
Rueckwand
100
AcDbLine
 10
-332.8149995627111
 20
321.8534031448435
 30
0.0
 11
-332.8149995627111
 21
322.8534031448435
 31
0.0
  0
LINE
  5
21AD
330
3B0D
100
AcDbEntity
  8
Rueckwand
100
AcDbLine
 10
-242.8149995627111
 20
322.8534031448435
 30
0.0
 11
-242.8149995627111
 21
321.8534031448435
 31
0.0
  0
LINE
  5
21AE
330
3B0D
100
AcDbEntity
  8
Rueckwand
100
AcDbLine
 10
651.27623470102
 20
323.8376355507713
 30
0.0
 11
651.27623470102
 21
324.8376355507713
 31
0.0
  0
LINE
  5
21AF
330
3B0D
100
AcDbEntity
  8
Rueckwand
100
AcDbLine
 10
741.27623470102
 20
324.8376355507713
 30
0.0
 11
741.27623470102
 21
323.8376355507713
 31
0.0
  0
ARC
  5
21B1
330
3B0D
100
AcDbEntity
  8
Rueckwand
100
AcDbCircle
 10
-443.3628581553075
 20
322.9571392252469
 30
0.0
 40
2.0
100
AcDbArc
 50
90.0
 51
180.0
  0
ARC
  5
21B2
330
3B0D
100
AcDbEntity
  8
Rueckwand
100
AcDbCircle
 10
-443.3628581553075
 20
321.9571392252469
 30
0.0
 40
2.0
100
AcDbArc
 50
180.0
 51
270.0
  0
ARC
  5
21B3
330
3B0D
100
AcDbEntity
  8
Rueckwand
100
AcDbCircle
 10
-357.3628581553075
 20
321.9571392252469
 30
0.0
 40
2.0
100
AcDbArc
 50
270.0
 51
0.0
  0
ARC
  5
21B4
330
3B0D
100
AcDbEntity
  8
Rueckwand
100
AcDbCircle
 10
-357.3628581553075
 20
322.9571392252469
 30
0.0
 40
2.0
100
AcDbArc
 50
0.0
 51
90.0
  0
ARC
  5
21B5
330
3B0D
100
AcDbEntity
  8
Rueckwand
100
AcDbCircle
 10
-330.8149995627111
 20
322.8534031448435
 30
0.0
 40
2.0
100
AcDbArc
 50
90.0
 51
180.0
  0
ARC
  5
21B6
330
3B0D
100
AcDbEntity
  8
Rueckwand
100
AcDbCircle
 10
-330.8149995627111
 20
321.8534031448435
 30
0.0
 40
2.0
100
AcDbArc
 50
180.0
 51
270.0
  0
ARC
  5
21B7
330
3B0D
100
AcDbEntity
  8
Rueckwand
100
AcDbCircle
 10
-244.8149995627111
 20
321.8534031448435
 30
0.0
 40
2.0
100
AcDbArc
 50
270.0
 51
0.0
  0
ARC
  5
21B8
330
3B0D
100
AcDbEntity
  8
Rueckwand
100
AcDbCircle
 10
-244.8149995627111
 20
322.8534031448435
 30
0.0
 40
2.0
100
AcDbArc
 50
0.0
 51
90.0
  0
ARC
  5
21B9
330
3B0D
100
AcDbEntity
  8
Rueckwand
100
AcDbCircle
 10
653.27623470102
 20
323.8376355507713
 30
0.0
 40
2.0
100
AcDbArc
 50
180.0
 51
270.0
  0
ARC
  5
21BA
330
3B0D
100
AcDbEntity
  8
Rueckwand
100
AcDbCircle
 10
653.27623470102
 20
324.8376355507713
 30
0.0
 40
2.0
100
AcDbArc
 50
90.0
 51
180.0
  0
ARC
  5
21BB
330
3B0D
100
AcDbEntity
  8
Rueckwand
100
AcDbCircle
 10
739.27623470102
 20
324.8376355507713
 30
0.0
 40
2.0
100
AcDbArc
 50
0.0
 51
90.0
  0
ARC
  5
21BC
330
3B0D
100
AcDbEntity
  8
Rueckwand
100
AcDbCircle
 10
739.27623470102
 20
323.8376355507713
 30
0.0
 40
2.0
100
AcDbArc
 50
270.0
 51
0.0
  0
LINE
  5
21BD
330
3B0D
100
AcDbEntity
  8
Rueckwand
100
AcDbLine
 10
651.27623470102
 20
313.8376355507713
 30
0.0
 11
651.27623470102
 21
314.8376355507713
 31
0.0
  0
LINE
  5
21BE
330
3B0D
100
AcDbEntity
  8
Rueckwand
100
AcDbLine
 10
741.27623470102
 20
314.8376355507713
 30
0.0
 11
741.27623470102
 21
313.8376355507713
 31
0.0
  0
ARC
  5
21BF
330
3B0D
100
AcDbEntity
  8
Rueckwand
100
AcDbCircle
 10
-443.3628581553075
 20
312.9571392252469
 30
0.0
 40
2.0
100
AcDbArc
 50
90.0
 51
180.0
  0
ARC
  5
21C0
330
3B0D
100
AcDbEntity
  8
Rueckwand
100
AcDbCircle
 10
-443.3628581553075
 20
311.9571392252469
 30
0.0
 40
2.0
100
AcDbArc
 50
180.0
 51
270.0
  0
ARC
  5
21C1
330
3B0D
100
AcDbEntity
  8
Rueckwand
100
AcDbCircle
 10
-357.3628581553075
 20
311.9571392252469
 30
0.0
 40
2.0
100
AcDbArc
 50
270.0
 51
0.0
  0
ARC
  5
21C2
330
3B0D
100
AcDbEntity
  8
Rueckwand
100
AcDbCircle
 10
-357.3628581553075
 20
312.9571392252469
 30
0.0
 40
2.0
100
AcDbArc
 50
0.0
 51
90.0
  0
ARC
  5
21C3
330
3B0D
100
AcDbEntity
  8
Rueckwand
100
AcDbCircle
 10
-330.8149995627111
 20
312.8534031448435
 30
0.0
 40
2.0
100
AcDbArc
 50
90.0
 51
180.0
  0
ARC
  5
21C4
330
3B0D
100
AcDbEntity
  8
Rueckwand
100
AcDbCircle
 10
-330.8149995627111
 20
311.8534031448435
 30
0.0
 40
2.0
100
AcDbArc
 50
180.0
 51
270.0
  0
ARC
  5
21C5
330
3B0D
100
AcDbEntity
  8
Rueckwand
100
AcDbCircle
 10
-244.8149995627111
 20
311.8534031448435
 30
0.0
 40
2.0
100
AcDbArc
 50
270.0
 51
0.0
  0
ARC
  5
21C6
330
3B0D
100
AcDbEntity
  8
Rueckwand
100
AcDbCircle
 10
-244.8149995627111
 20
312.8534031448435
 30
0.0
 40
2.0
100
AcDbArc
 50
0.0
 51
90.0
  0
ARC
  5
21C7
330
3B0D
100
AcDbEntity
  8
Rueckwand
100
AcDbCircle
 10
653.27623470102
 20
313.8376355507713
 30
0.0
 40
2.0
100
AcDbArc
 50
180.0
 51
270.0
  0
ARC
  5
21C8
330
3B0D
100
AcDbEntity
  8
Rueckwand
100
AcDbCircle
 10
653.27623470102
 20
314.8376355507713
 30
0.0
 40
2.0
100
AcDbArc
 50
90.0
 51
180.0
  0
ARC
  5
21C9
330
3B0D
100
AcDbEntity
  8
Rueckwand
100
AcDbCircle
 10
739.27623470102
 20
314.8376355507713
 30
0.0
 40
2.0
100
AcDbArc
 50
0.0
 51
90.0
  0
ARC
  5
21CA
330
3B0D
100
AcDbEntity
  8
Rueckwand
100
AcDbCircle
 10
739.27623470102
 20
313.8376355507713
 30
0.0
 40
2.0
100
AcDbArc
 50
270.0
 51
0.0
  0
LINE
  5
21CB
330
3B0D
100
AcDbEntity
  8
Rueckwand
100
AcDbLine
 10
-443.3628581553075
 20
314.9571392252469
 30
0.0
 11
-357.3628581553075
 21
314.9571392252469
 31
0.0
  0
LINE
  5
21CC
330
3B0D
100
AcDbEntity
  8
Rueckwand
100
AcDbLine
 10
653.27623470102
 20
316.8376355507713
 30
0.0
 11
739.27623470102
 21
316.8376355507713
 31
0.0
  0
LINE
  5
21CD
330
3B0D
100
AcDbEntity
  8
Rueckwand
100
AcDbLine
 10
-443.3628581553075
 20
309.9571392252469
 30
0.0
 11
-357.3628581553075
 21
309.9571392252469
 31
0.0
  0
LINE
  5
21CE
330
3B0D
100
AcDbEntity
  8
Rueckwand
100
AcDbLine
 10
653.27623470102
 20
311.8376355507713
 30
0.0
 11
739.27623470102
 21
311.8376355507713
 31
0.0
  0
LINE
  5
21CF
330
3B0D
100
AcDbEntity
  8
Rueckwand
100
AcDbLine
 10
-330.8149995627111
 20
314.8534031448435
 30
0.0
 11
-244.8149995627111
 21
314.8534031448435
 31
0.0
  0
LINE
  5
21D0
330
3B0D
100
AcDbEntity
  8
Rueckwand
100
AcDbLine
 10
-330.8149995627111
 20
309.8534031448435
 30
0.0
 11
-244.8149995627111
 21
309.8534031448435
 31
0.0
  0
LINE
  5
21D1
330
3B0D
100
AcDbEntity
  8
Rueckwand
100
AcDbLine
 10
-445.3628581553075
 20
311.9571392252469
 30
0.0
 11
-445.3628581553075
 21
312.9571392252469
 31
0.0
  0
LINE
  5
21D2
330
3B0D
100
AcDbEntity
  8
Rueckwand
100
AcDbLine
 10
-355.3628581553075
 20
312.9571392252469
 30
0.0
 11
-355.3628581553075
 21
311.9571392252469
 31
0.0
  0
LINE
  5
21D3
330
3B0D
100
AcDbEntity
  8
Rueckwand
100
AcDbLine
 10
-332.8149995627111
 20
311.8534031448435
 30
0.0
 11
-332.8149995627111
 21
312.8534031448435
 31
0.0
  0
LINE
  5
21D4
330
3B0D
100
AcDbEntity
  8
Rueckwand
100
AcDbLine
 10
-242.8149995627111
 20
312.8534031448435
 30
0.0
 11
-242.8149995627111
 21
311.8534031448435
 31
0.0
  0
LINE
  5
21D5
330
3B0D
100
AcDbEntity
  8
Rueckwand
100
AcDbLine
 10
651.27623470102
 20
303.8376355507713
 30
0.0
 11
651.27623470102
 21
304.8376355507713
 31
0.0
  0
LINE
  5
21D6
330
3B0D
100
AcDbEntity
  8
Rueckwand
100
AcDbLine
 10
741.27623470102
 20
304.8376355507713
 30
0.0
 11
741.27623470102
 21
303.8376355507713
 31
0.0
  0
ARC
  5
21D7
330
3B0D
100
AcDbEntity
  8
Rueckwand
100
AcDbCircle
 10
-443.3628581553075
 20
302.9571392252469
 30
0.0
 40
2.0
100
AcDbArc
 50
90.0
 51
180.0
  0
ARC
  5
21D8
330
3B0D
100
AcDbEntity
  8
Rueckwand
100
AcDbCircle
 10
-443.3628581553075
 20
301.9571392252469
 30
0.0
 40
2.0
100
AcDbArc
 50
180.0
 51
270.0
  0
ARC
  5
21D9
330
3B0D
100
AcDbEntity
  8
Rueckwand
100
AcDbCircle
 10
-357.3628581553075
 20
301.9571392252469
 30
0.0
 40
2.0
100
AcDbArc
 50
270.0
 51
0.0
  0
ARC
  5
21DA
330
3B0D
100
AcDbEntity
  8
Rueckwand
100
AcDbCircle
 10
-357.3628581553075
 20
302.9571392252469
 30
0.0
 40
2.0
100
AcDbArc
 50
0.0
 51
90.0
  0
ARC
  5
21DB
330
3B0D
100
AcDbEntity
  8
Rueckwand
100
AcDbCircle
 10
-330.8149995627111
 20
302.8534031448435
 30
0.0
 40
2.0
100
AcDbArc
 50
90.0
 51
180.0
  0
ARC
  5
21DC
330
3B0D
100
AcDbEntity
  8
Rueckwand
100
AcDbCircle
 10
-330.8149995627111
 20
301.8534031448435
 30
0.0
 40
2.0
100
AcDbArc
 50
180.0
 51
270.0
  0
ARC
  5
21DD
330
3B0D
100
AcDbEntity
  8
Rueckwand
100
AcDbCircle
 10
-244.8149995627111
 20
301.8534031448435
 30
0.0
 40
2.0
100
AcDbArc
 50
270.0
 51
0.0
  0
ARC
  5
21DE
330
3B0D
100
AcDbEntity
  8
Rueckwand
100
AcDbCircle
 10
-244.8149995627111
 20
302.8534031448435
 30
0.0
 40
2.0
100
AcDbArc
 50
0.0
 51
90.0
  0
ARC
  5
21DF
330
3B0D
100
AcDbEntity
  8
Rueckwand
100
AcDbCircle
 10
653.27623470102
 20
303.8376355507713
 30
0.0
 40
2.0
100
AcDbArc
 50
180.0
 51
270.0
  0
ARC
  5
21E0
330
3B0D
100
AcDbEntity
  8
Rueckwand
100
AcDbCircle
 10
653.27623470102
 20
304.8376355507713
 30
0.0
 40
2.0
100
AcDbArc
 50
90.0
 51
180.0
  0
ARC
  5
21E1
330
3B0D
100
AcDbEntity
  8
Rueckwand
100
AcDbCircle
 10
739.27623470102
 20
304.8376355507713
 30
0.0
 40
2.0
100
AcDbArc
 50
0.0
 51
90.0
  0
ARC
  5
21E2
330
3B0D
100
AcDbEntity
  8
Rueckwand
100
AcDbCircle
 10
739.27623470102
 20
303.8376355507713
 30
0.0
 40
2.0
100
AcDbArc
 50
270.0
 51
0.0
  0
LINE
  5
21E3
330
3B0D
100
AcDbEntity
  8
Rueckwand
100
AcDbLine
 10
-443.3628581553075
 20
304.9571392252469
 30
0.0
 11
-357.3628581553075
 21
304.9571392252469
 31
0.0
  0
LINE
  5
21E4
330
3B0D
100
AcDbEntity
  8
Rueckwand
100
AcDbLine
 10
653.27623470102
 20
306.8376355507713
 30
0.0
 11
739.27623470102
 21
306.8376355507713
 31
0.0
  0
LINE
  5
21E5
330
3B0D
100
AcDbEntity
  8
Rueckwand
100
AcDbLine
 10
-443.3628581553075
 20
299.9571392252469
 30
0.0
 11
-357.3628581553075
 21
299.9571392252469
 31
0.0
  0
LINE
  5
21E6
330
3B0D
100
AcDbEntity
  8
Rueckwand
100
AcDbLine
 10
653.27623470102
 20
301.8376355507713
 30
0.0
 11
739.27623470102
 21
301.8376355507713
 31
0.0
  0
LINE
  5
21E7
330
3B0D
100
AcDbEntity
  8
Rueckwand
100
AcDbLine
 10
-330.8149995627111
 20
304.8534031448435
 30
0.0
 11
-244.8149995627111
 21
304.8534031448435
 31
0.0
  0
LINE
  5
21E8
330
3B0D
100
AcDbEntity
  8
Rueckwand
100
AcDbLine
 10
-330.8149995627111
 20
299.8534031448435
 30
0.0
 11
-244.8149995627111
 21
299.8534031448435
 31
0.0
  0
LINE
  5
21E9
330
3B0D
100
AcDbEntity
  8
Rueckwand
100
AcDbLine
 10
-445.3628581553075
 20
301.9571392252469
 30
0.0
 11
-445.3628581553075
 21
302.9571392252469
 31
0.0
  0
LINE
  5
21EA
330
3B0D
100
AcDbEntity
  8
Rueckwand
100
AcDbLine
 10
-355.3628581553075
 20
302.9571392252469
 30
0.0
 11
-355.3628581553075
 21
301.9571392252469
 31
0.0
  0
LINE
  5
21EB
330
3B0D
100
AcDbEntity
  8
Rueckwand
100
AcDbLine
 10
-332.8149995627111
 20
301.8534031448435
 30
0.0
 11
-332.8149995627111
 21
302.8534031448435
 31
0.0
  0
LINE
  5
21EC
330
3B0D
100
AcDbEntity
  8
Rueckwand
100
AcDbLine
 10
-242.8149995627111
 20
302.8534031448435
 30
0.0
 11
-242.8149995627111
 21
301.8534031448435
 31
0.0
  0
LINE
  5
21ED
330
3B0D
100
AcDbEntity
  8
Rueckwand
100
AcDbLine
 10
538.2752729427771
 20
323.7239337284851
 30
0.0
 11
538.2752729427771
 21
324.7239337284851
 31
0.0
  0
LINE
  5
21EE
330
3B0D
100
AcDbEntity
  8
Rueckwand
100
AcDbLine
 10
628.2752729427771
 20
324.7239337284851
 30
0.0
 11
628.2752729427771
 21
323.7239337284851
 31
0.0
  0
ARC
  5
21EF
330
3B0D
100
AcDbEntity
  8
Rueckwand
100
AcDbCircle
 10
-443.3628581553075
 20
292.9571392252469
 30
0.0
 40
2.0
100
AcDbArc
 50
90.0
 51
180.0
  0
ARC
  5
21F0
330
3B0D
100
AcDbEntity
  8
Rueckwand
100
AcDbCircle
 10
-443.3628581553075
 20
291.9571392252469
 30
0.0
 40
2.0
100
AcDbArc
 50
180.0
 51
270.0
  0
ARC
  5
21F1
330
3B0D
100
AcDbEntity
  8
Rueckwand
100
AcDbCircle
 10
-357.3628581553075
 20
291.9571392252469
 30
0.0
 40
2.0
100
AcDbArc
 50
270.0
 51
0.0
  0
ARC
  5
21F2
330
3B0D
100
AcDbEntity
  8
Rueckwand
100
AcDbCircle
 10
-357.3628581553075
 20
292.9571392252469
 30
0.0
 40
2.0
100
AcDbArc
 50
0.0
 51
90.0
  0
ARC
  5
21F3
330
3B0D
100
AcDbEntity
  8
Rueckwand
100
AcDbCircle
 10
-330.8149995627111
 20
292.8534031448435
 30
0.0
 40
2.0
100
AcDbArc
 50
90.0
 51
180.0
  0
ARC
  5
21F4
330
3B0D
100
AcDbEntity
  8
Rueckwand
100
AcDbCircle
 10
-330.8149995627111
 20
291.8534031448435
 30
0.0
 40
2.0
100
AcDbArc
 50
180.0
 51
270.0
  0
ARC
  5
21F5
330
3B0D
100
AcDbEntity
  8
Rueckwand
100
AcDbCircle
 10
-244.8149995627111
 20
291.8534031448435
 30
0.0
 40
2.0
100
AcDbArc
 50
270.0
 51
0.0
  0
ARC
  5
21F6
330
3B0D
100
AcDbEntity
  8
Rueckwand
100
AcDbCircle
 10
-244.8149995627111
 20
292.8534031448435
 30
0.0
 40
2.0
100
AcDbArc
 50
0.0
 51
90.0
  0
ARC
  5
21F7
330
3B0D
100
AcDbEntity
  8
Rueckwand
100
AcDbCircle
 10
540.2752729427771
 20
323.7239337284851
 30
0.0
 40
2.0
100
AcDbArc
 50
180.0
 51
270.0
  0
ARC
  5
21F8
330
3B0D
100
AcDbEntity
  8
Rueckwand
100
AcDbCircle
 10
540.2752729427771
 20
324.7239337284851
 30
0.0
 40
2.0
100
AcDbArc
 50
90.0
 51
180.0
  0
ARC
  5
21F9
330
3B0D
100
AcDbEntity
  8
Rueckwand
100
AcDbCircle
 10
626.2752729427771
 20
324.7239337284851
 30
0.0
 40
2.0
100
AcDbArc
 50
0.0
 51
90.0
  0
ARC
  5
21FA
330
3B0D
100
AcDbEntity
  8
Rueckwand
100
AcDbCircle
 10
626.2752729427771
 20
323.7239337284851
 30
0.0
 40
2.0
100
AcDbArc
 50
270.0
 51
0.0
  0
LINE
  5
21FB
330
3B0D
100
AcDbEntity
  8
Rueckwand
100
AcDbLine
 10
-443.3628581553075
 20
294.9571392252469
 30
0.0
 11
-357.3628581553075
 21
294.9571392252469
 31
0.0
  0
LINE
  5
21FC
330
3B0D
100
AcDbEntity
  8
Rueckwand
100
AcDbLine
 10
540.2752729427771
 20
326.7239337284851
 30
0.0
 11
626.2752729427771
 21
326.7239337284851
 31
0.0
  0
LINE
  5
21FD
330
3B0D
100
AcDbEntity
  8
Rueckwand
100
AcDbLine
 10
-443.3628581553075
 20
289.9571392252469
 30
0.0
 11
-357.3628581553075
 21
289.9571392252469
 31
0.0
  0
LINE
  5
21FE
330
3B0D
100
AcDbEntity
  8
Rueckwand
100
AcDbLine
 10
540.2752729427771
 20
321.7239337284851
 30
0.0
 11
626.2752729427771
 21
321.7239337284851
 31
0.0
  0
LINE
  5
21FF
330
3B0D
100
AcDbEntity
  8
Rueckwand
100
AcDbLine
 10
-330.8149995627111
 20
294.8534031448435
 30
0.0
 11
-244.8149995627111
 21
294.8534031448435
 31
0.0
  0
LINE
  5
2200
330
3B0D
100
AcDbEntity
  8
Rueckwand
100
AcDbLine
 10
-330.8149995627111
 20
289.8534031448435
 30
0.0
 11
-244.8149995627111
 21
289.8534031448435
 31
0.0
  0
LINE
  5
2201
330
3B0D
100
AcDbEntity
  8
Rueckwand
100
AcDbLine
 10
-445.3628581553075
 20
291.9571392252469
 30
0.0
 11
-445.3628581553075
 21
292.9571392252469
 31
0.0
  0
LINE
  5
2202
330
3B0D
100
AcDbEntity
  8
Rueckwand
100
AcDbLine
 10
-355.3628581553075
 20
292.9571392252469
 30
0.0
 11
-355.3628581553075
 21
291.9571392252469
 31
0.0
  0
LINE
  5
2203
330
3B0D
100
AcDbEntity
  8
Rueckwand
100
AcDbLine
 10
-332.8149995627111
 20
291.8534031448435
 30
0.0
 11
-332.8149995627111
 21
292.8534031448435
 31
0.0
  0
LINE
  5
2204
330
3B0D
100
AcDbEntity
  8
Rueckwand
100
AcDbLine
 10
-242.8149995627111
 20
292.8534031448435
 30
0.0
 11
-242.8149995627111
 21
291.8534031448435
 31
0.0
  0
LINE
  5
2205
330
3B0D
100
AcDbEntity
  8
Rueckwand
100
AcDbLine
 10
538.2752729427771
 20
313.7239337284851
 30
0.0
 11
538.2752729427771
 21
314.7239337284851
 31
0.0
  0
LINE
  5
2206
330
3B0D
100
AcDbEntity
  8
Rueckwand
100
AcDbLine
 10
628.2752729427771
 20
314.7239337284851
 30
0.0
 11
628.2752729427771
 21
313.7239337284851
 31
0.0
  0
ARC
  5
220F
330
3B0D
100
AcDbEntity
  8
Rueckwand
100
AcDbCircle
 10
540.2752729427771
 20
313.7239337284851
 30
0.0
 40
2.0
100
AcDbArc
 50
180.0
 51
270.0
  0
ARC
  5
2210
330
3B0D
100
AcDbEntity
  8
Rueckwand
100
AcDbCircle
 10
540.2752729427771
 20
314.7239337284851
 30
0.0
 40
2.0
100
AcDbArc
 50
90.0
 51
180.0
  0
ARC
  5
2211
330
3B0D
100
AcDbEntity
  8
Rueckwand
100
AcDbCircle
 10
626.2752729427771
 20
314.7239337284851
 30
0.0
 40
2.0
100
AcDbArc
 50
0.0
 51
90.0
  0
ARC
  5
2212
330
3B0D
100
AcDbEntity
  8
Rueckwand
100
AcDbCircle
 10
626.2752729427771
 20
313.7239337284851
 30
0.0
 40
2.0
100
AcDbArc
 50
270.0
 51
0.0
  0
LINE
  5
2214
330
3B0D
100
AcDbEntity
  8
Rueckwand
100
AcDbLine
 10
540.2752729427771
 20
316.7239337284851
 30
0.0
 11
626.2752729427771
 21
316.7239337284851
 31
0.0
  0
LINE
  5
2216
330
3B0D
100
AcDbEntity
  8
Rueckwand
100
AcDbLine
 10
540.2752729427771
 20
311.7239337284851
 30
0.0
 11
626.2752729427771
 21
311.7239337284851
 31
0.0
  0
LINE
  5
221D
330
3B0D
100
AcDbEntity
  8
Rueckwand
100
AcDbLine
 10
538.2752729427771
 20
303.7239337284851
 30
0.0
 11
538.2752729427771
 21
304.7239337284851
 31
0.0
  0
LINE
  5
221E
330
3B0D
100
AcDbEntity
  8
Rueckwand
100
AcDbLine
 10
628.2752729427771
 20
304.7239337284851
 30
0.0
 11
628.2752729427771
 21
303.7239337284851
 31
0.0
  0
ARC
  5
2227
330
3B0D
100
AcDbEntity
  8
Rueckwand
100
AcDbCircle
 10
540.2752729427771
 20
303.7239337284851
 30
0.0
 40
2.0
100
AcDbArc
 50
180.0
 51
270.0
  0
ARC
  5
2228
330
3B0D
100
AcDbEntity
  8
Rueckwand
100
AcDbCircle
 10
540.2752729427771
 20
304.7239337284851
 30
0.0
 40
2.0
100
AcDbArc
 50
90.0
 51
180.0
  0
ARC
  5
2229
330
3B0D
100
AcDbEntity
  8
Rueckwand
100
AcDbCircle
 10
626.2752729427771
 20
304.7239337284851
 30
0.0
 40
2.0
100
AcDbArc
 50
0.0
 51
90.0
  0
ARC
  5
222A
330
3B0D
100
AcDbEntity
  8
Rueckwand
100
AcDbCircle
 10
626.2752729427771
 20
303.7239337284851
 30
0.0
 40
2.0
100
AcDbArc
 50
270.0
 51
0.0
  0
LINE
  5
222C
330
3B0D
100
AcDbEntity
  8
Rueckwand
100
AcDbLine
 10
540.2752729427771
 20
306.7239337284851
 30
0.0
 11
626.2752729427771
 21
306.7239337284851
 31
0.0
  0
LINE
  5
222E
330
3B0D
100
AcDbEntity
  8
Rueckwand
100
AcDbLine
 10
540.2752729427771
 20
301.7239337284851
 30
0.0
 11
626.2752729427771
 21
301.7239337284851
 31
0.0
  0
LINE
  5
2295
330
3B0D
100
AcDbEntity
  8
Deckel unten
100
AcDbLine
 10
-33.0
 20
-365.0
 30
0.0
 11
53.0
 21
-365.0
 31
0.0
  0
LINE
  5
2296
330
3B0D
100
AcDbEntity
  8
Deckel unten
100
AcDbLine
 10
-33.0
 20
-370.0
 30
0.0
 11
53.0
 21
-370.0
 31
0.0
  0
LINE
  5
2297
330
3B0D
100
AcDbEntity
  8
Deckel unten
100
AcDbLine
 10
-147.5478585925964
 20
-367.8962639195968
 30
0.0
 11
-147.5478585925964
 21
-366.8962639195968
 31
0.0
  0
LINE
  5
2298
330
3B0D
100
AcDbEntity
  8
Deckel unten
100
AcDbLine
 10
-57.54785859259644
 20
-366.8962639195968
 30
0.0
 11
-57.54785859259644
 21
-367.8962639195968
 31
0.0
  0
LINE
  5
2299
330
3B0D
100
AcDbEntity
  8
Deckel unten
100
AcDbLine
 10
-35.0
 20
-368.0
 30
0.0
 11
-35.0
 21
-367.0
 31
0.0
  0
LINE
  5
229A
330
3B0D
100
AcDbEntity
  8
Deckel unten
100
AcDbLine
 10
55.0
 20
-367.0
 30
0.0
 11
55.0
 21
-368.0
 31
0.0
  0
LINE
  5
229B
330
3B0D
100
AcDbEntity
  8
Deckel unten
100
AcDbLine
 10
398.5026002077317
 20
-375.8962639195967
 30
0.0
 11
398.5026002077317
 21
-374.8962639195967
 31
0.0
  0
LINE
  5
229C
330
3B0D
100
AcDbEntity
  8
Deckel unten
100
AcDbLine
 10
483.5026002077317
 20
-374.8962639195967
 30
0.0
 11
483.5026002077317
 21
-375.8962639195967
 31
0.0
  0
ARC
  5
229D
330
3B0D
100
AcDbEntity
  8
Deckel unten
100
AcDbCircle
 10
-145.5478585925964
 20
-366.8962639195968
 30
0.0
 40
2.0
100
AcDbArc
 50
90.0
 51
180.0
  0
ARC
  5
229E
330
3B0D
100
AcDbEntity
  8
Deckel unten
100
AcDbCircle
 10
-145.5478585925964
 20
-367.8962639195968
 30
0.0
 40
2.0
100
AcDbArc
 50
180.0
 51
270.0
  0
ARC
  5
229F
330
3B0D
100
AcDbEntity
  8
Deckel unten
100
AcDbCircle
 10
-59.54785859259644
 20
-367.8962639195968
 30
0.0
 40
2.0
100
AcDbArc
 50
270.0
 51
0.0
  0
ARC
  5
22A0
330
3B0D
100
AcDbEntity
  8
Deckel unten
100
AcDbCircle
 10
-59.54785859259644
 20
-366.8962639195968
 30
0.0
 40
2.0
100
AcDbArc
 50
0.0
 51
90.0
  0
ARC
  5
22A1
330
3B0D
100
AcDbEntity
  8
Deckel unten
100
AcDbCircle
 10
-33.0
 20
-367.0
 30
0.0
 40
2.0
100
AcDbArc
 50
90.0
 51
180.0
  0
ARC
  5
22A2
330
3B0D
100
AcDbEntity
  8
Deckel unten
100
AcDbCircle
 10
-33.0
 20
-368.0
 30
0.0
 40
2.0
100
AcDbArc
 50
180.0
 51
270.0
  0
ARC
  5
22A3
330
3B0D
100
AcDbEntity
  8
Deckel unten
100
AcDbCircle
 10
53.0
 20
-368.0
 30
0.0
 40
2.0
100
AcDbArc
 50
270.0
 51
0.0
  0
ARC
  5
22A4
330
3B0D
100
AcDbEntity
  8
Deckel unten
100
AcDbCircle
 10
53.0
 20
-367.0
 30
0.0
 40
2.0
100
AcDbArc
 50
0.0
 51
90.0
  0
ARC
  5
22A5
330
3B0D
100
AcDbEntity
  8
Deckel unten
100
AcDbCircle
 10
400.5026002077317
 20
-375.8962639195967
 30
0.0
 40
2.0
100
AcDbArc
 50
180.0
 51
270.0
  0
ARC
  5
22A6
330
3B0D
100
AcDbEntity
  8
Deckel unten
100
AcDbCircle
 10
400.5026002077317
 20
-374.8962639195967
 30
0.0
 40
2.0
100
AcDbArc
 50
90.0
 51
180.0
  0
ARC
  5
22A7
330
3B0D
100
AcDbEntity
  8
Deckel unten
100
AcDbCircle
 10
481.5026002077317
 20
-374.8962639195967
 30
0.0
 40
2.0
100
AcDbArc
 50
0.0
 51
90.0
  0
ARC
  5
22A8
330
3B0D
100
AcDbEntity
  8
Deckel unten
100
AcDbCircle
 10
481.5026002077317
 20
-375.8962639195967
 30
0.0
 40
2.0
100
AcDbArc
 50
270.0
 51
0.0
  0
LINE
  5
22A9
330
3B0D
100
AcDbEntity
  8
Deckel unten
100
AcDbLine
 10
398.5026002077317
 20
-385.8962639195967
 30
0.0
 11
398.5026002077317
 21
-384.8962639195967
 31
0.0
  0
LINE
  5
22AA
330
3B0D
100
AcDbEntity
  8
Deckel unten
100
AcDbLine
 10
483.5026002077317
 20
-384.8962639195967
 30
0.0
 11
483.5026002077317
 21
-385.8962639195967
 31
0.0
  0
ARC
  5
22AB
330
3B0D
100
AcDbEntity
  8
Deckel unten
100
AcDbCircle
 10
-145.5478585925964
 20
-376.8962639195968
 30
0.0
 40
2.0
100
AcDbArc
 50
90.0
 51
180.0
  0
ARC
  5
22AC
330
3B0D
100
AcDbEntity
  8
Deckel unten
100
AcDbCircle
 10
-145.5478585925964
 20
-377.8962639195968
 30
0.0
 40
2.0
100
AcDbArc
 50
180.0
 51
270.0
  0
ARC
  5
22AD
330
3B0D
100
AcDbEntity
  8
Deckel unten
100
AcDbCircle
 10
-59.54785859259644
 20
-377.8962639195968
 30
0.0
 40
2.0
100
AcDbArc
 50
270.0
 51
0.0
  0
ARC
  5
22AE
330
3B0D
100
AcDbEntity
  8
Deckel unten
100
AcDbCircle
 10
-59.54785859259644
 20
-376.8962639195968
 30
0.0
 40
2.0
100
AcDbArc
 50
0.0
 51
90.0
  0
ARC
  5
22AF
330
3B0D
100
AcDbEntity
  8
Deckel unten
100
AcDbCircle
 10
-33.0
 20
-377.0
 30
0.0
 40
2.0
100
AcDbArc
 50
90.0
 51
180.0
  0
ARC
  5
22B0
330
3B0D
100
AcDbEntity
  8
Deckel unten
100
AcDbCircle
 10
-33.0
 20
-378.0
 30
0.0
 40
2.0
100
AcDbArc
 50
180.0
 51
270.0
  0
ARC
  5
22B1
330
3B0D
100
AcDbEntity
  8
Deckel unten
100
AcDbCircle
 10
53.0
 20
-378.0
 30
0.0
 40
2.0
100
AcDbArc
 50
270.0
 51
0.0
  0
ARC
  5
22B2
330
3B0D
100
AcDbEntity
  8
Deckel unten
100
AcDbCircle
 10
53.0
 20
-377.0
 30
0.0
 40
2.0
100
AcDbArc
 50
0.0
 51
90.0
  0
ARC
  5
22B3
330
3B0D
100
AcDbEntity
  8
Deckel unten
100
AcDbCircle
 10
400.5026002077317
 20
-385.8962639195967
 30
0.0
 40
2.0
100
AcDbArc
 50
180.0
 51
270.0
  0
ARC
  5
22B4
330
3B0D
100
AcDbEntity
  8
Deckel unten
100
AcDbCircle
 10
400.5026002077317
 20
-384.8962639195967
 30
0.0
 40
2.0
100
AcDbArc
 50
90.0
 51
180.0
  0
ARC
  5
22B5
330
3B0D
100
AcDbEntity
  8
Deckel unten
100
AcDbCircle
 10
481.5026002077317
 20
-384.8962639195967
 30
0.0
 40
2.0
100
AcDbArc
 50
0.0
 51
90.0
  0
ARC
  5
22B6
330
3B0D
100
AcDbEntity
  8
Deckel unten
100
AcDbCircle
 10
481.5026002077317
 20
-385.8962639195967
 30
0.0
 40
2.0
100
AcDbArc
 50
270.0
 51
0.0
  0
LINE
  5
22B7
330
3B0D
100
AcDbEntity
  8
Deckel unten
100
AcDbLine
 10
-145.5478585925964
 20
-374.8962639195968
 30
0.0
 11
-59.54785859259644
 21
-374.8962639195968
 31
0.0
  0
LINE
  5
22B9
330
3B0D
100
AcDbEntity
  8
Deckel unten
100
AcDbLine
 10
-145.5478585925964
 20
-379.8962639195968
 30
0.0
 11
-59.54785859259644
 21
-379.8962639195968
 31
0.0
  0
LINE
  5
22BB
330
3B0D
100
AcDbEntity
  8
Deckel unten
100
AcDbLine
 10
-33.0
 20
-375.0
 30
0.0
 11
53.0
 21
-375.0
 31
0.0
  0
LINE
  5
22BC
330
3B0D
100
AcDbEntity
  8
Deckel unten
100
AcDbLine
 10
-33.0
 20
-380.0
 30
0.0
 11
53.0
 21
-380.0
 31
0.0
  0
LINE
  5
22BD
330
3B0D
100
AcDbEntity
  8
Deckel unten
100
AcDbLine
 10
-147.5478585925964
 20
-377.8962639195968
 30
0.0
 11
-147.5478585925964
 21
-376.8962639195968
 31
0.0
  0
LINE
  5
22BE
330
3B0D
100
AcDbEntity
  8
Deckel unten
100
AcDbLine
 10
-57.54785859259644
 20
-376.8962639195968
 30
0.0
 11
-57.54785859259644
 21
-377.8962639195968
 31
0.0
  0
LINE
  5
22BF
330
3B0D
100
AcDbEntity
  8
Deckel unten
100
AcDbLine
 10
-35.0
 20
-378.0
 30
0.0
 11
-35.0
 21
-377.0
 31
0.0
  0
LINE
  5
22C0
330
3B0D
100
AcDbEntity
  8
Deckel unten
100
AcDbLine
 10
55.0
 20
-377.0
 30
0.0
 11
55.0
 21
-378.0
 31
0.0
  0
LINE
  5
22C1
330
3B0D
100
AcDbEntity
  8
Deckel unten
100
AcDbLine
 10
398.5026002077317
 20
-395.8962639195967
 30
0.0
 11
398.5026002077317
 21
-394.8962639195967
 31
0.0
  0
LINE
  5
22C2
330
3B0D
100
AcDbEntity
  8
Deckel unten
100
AcDbLine
 10
483.5026002077317
 20
-394.8962639195967
 30
0.0
 11
483.5026002077317
 21
-395.8962639195967
 31
0.0
  0
ARC
  5
22C3
330
3B0D
100
AcDbEntity
  8
Deckel unten
100
AcDbCircle
 10
-145.5478585925964
 20
-386.8962639195968
 30
0.0
 40
2.0
100
AcDbArc
 50
90.0
 51
180.0
  0
ARC
  5
22C4
330
3B0D
100
AcDbEntity
  8
Deckel unten
100
AcDbCircle
 10
-145.5478585925964
 20
-387.8962639195968
 30
0.0
 40
2.0
100
AcDbArc
 50
180.0
 51
270.0
  0
ARC
  5
22C5
330
3B0D
100
AcDbEntity
  8
Deckel unten
100
AcDbCircle
 10
-59.54785859259644
 20
-387.8962639195968
 30
0.0
 40
2.0
100
AcDbArc
 50
270.0
 51
0.0
  0
ARC
  5
22C6
330
3B0D
100
AcDbEntity
  8
Deckel unten
100
AcDbCircle
 10
-59.54785859259644
 20
-386.8962639195968
 30
0.0
 40
2.0
100
AcDbArc
 50
0.0
 51
90.0
  0
ARC
  5
22C7
330
3B0D
100
AcDbEntity
  8
Deckel unten
100
AcDbCircle
 10
-33.0
 20
-387.0
 30
0.0
 40
2.0
100
AcDbArc
 50
90.0
 51
180.0
  0
ARC
  5
22C8
330
3B0D
100
AcDbEntity
  8
Deckel unten
100
AcDbCircle
 10
-33.0
 20
-388.0
 30
0.0
 40
2.0
100
AcDbArc
 50
180.0
 51
270.0
  0
ARC
  5
22C9
330
3B0D
100
AcDbEntity
  8
Deckel unten
100
AcDbCircle
 10
53.0
 20
-388.0
 30
0.0
 40
2.0
100
AcDbArc
 50
270.0
 51
0.0
  0
ARC
  5
22CA
330
3B0D
100
AcDbEntity
  8
Deckel unten
100
AcDbCircle
 10
53.0
 20
-387.0
 30
0.0
 40
2.0
100
AcDbArc
 50
0.0
 51
90.0
  0
ARC
  5
22CB
330
3B0D
100
AcDbEntity
  8
Deckel unten
100
AcDbCircle
 10
400.5026002077317
 20
-395.8962639195967
 30
0.0
 40
2.0
100
AcDbArc
 50
180.0
 51
270.0
  0
ARC
  5
22CC
330
3B0D
100
AcDbEntity
  8
Deckel unten
100
AcDbCircle
 10
400.5026002077317
 20
-394.8962639195967
 30
0.0
 40
2.0
100
AcDbArc
 50
90.0
 51
180.0
  0
ARC
  5
22CD
330
3B0D
100
AcDbEntity
  8
Deckel unten
100
AcDbCircle
 10
481.5026002077317
 20
-394.8962639195967
 30
0.0
 40
2.0
100
AcDbArc
 50
0.0
 51
90.0
  0
ARC
  5
22CE
330
3B0D
100
AcDbEntity
  8
Deckel unten
100
AcDbCircle
 10
481.5026002077317
 20
-395.8962639195967
 30
0.0
 40
2.0
100
AcDbArc
 50
270.0
 51
0.0
  0
LINE
  5
22CF
330
3B0D
100
AcDbEntity
  8
Deckel unten
100
AcDbLine
 10
-145.5478585925964
 20
-384.8962639195968
 30
0.0
 11
-59.54785859259644
 21
-384.8962639195968
 31
0.0
  0
LINE
  5
22D1
330
3B0D
100
AcDbEntity
  8
Deckel unten
100
AcDbLine
 10
-145.5478585925964
 20
-389.8962639195968
 30
0.0
 11
-59.54785859259644
 21
-389.8962639195968
 31
0.0
  0
LINE
  5
22D3
330
3B0D
100
AcDbEntity
  8
Deckel unten
100
AcDbLine
 10
-33.0
 20
-385.0
 30
0.0
 11
53.0
 21
-385.0
 31
0.0
  0
LINE
  5
22D4
330
3B0D
100
AcDbEntity
  8
Deckel unten
100
AcDbLine
 10
-33.0
 20
-390.0
 30
0.0
 11
53.0
 21
-390.0
 31
0.0
  0
LINE
  5
22D5
330
3B0D
100
AcDbEntity
  8
Deckel unten
100
AcDbLine
 10
-147.5478585925964
 20
-387.8962639195968
 30
0.0
 11
-147.5478585925964
 21
-386.8962639195968
 31
0.0
  0
LINE
  5
22D6
330
3B0D
100
AcDbEntity
  8
Deckel unten
100
AcDbLine
 10
-57.54785859259644
 20
-386.8962639195968
 30
0.0
 11
-57.54785859259644
 21
-387.8962639195968
 31
0.0
  0
LINE
  5
22D7
330
3B0D
100
AcDbEntity
  8
Deckel unten
100
AcDbLine
 10
-35.0
 20
-388.0
 30
0.0
 11
-35.0
 21
-387.0
 31
0.0
  0
LINE
  5
22D8
330
3B0D
100
AcDbEntity
  8
Deckel unten
100
AcDbLine
 10
55.0
 20
-387.0
 30
0.0
 11
55.0
 21
-388.0
 31
0.0
  0
LINE
  5
22D9
330
3B0D
100
AcDbEntity
  8
Deckel unten
100
AcDbLine
 10
398.5026002077317
 20
-405.8962639195967
 30
0.0
 11
398.5026002077317
 21
-404.8962639195967
 31
0.0
  0
LINE
  5
22DA
330
3B0D
100
AcDbEntity
  8
Deckel unten
100
AcDbLine
 10
483.5026002077317
 20
-404.8962639195967
 30
0.0
 11
483.5026002077317
 21
-405.8962639195967
 31
0.0
  0
ARC
  5
22DB
330
3B0D
100
AcDbEntity
  8
Deckel unten
100
AcDbCircle
 10
-145.5478585925964
 20
-396.8962639195968
 30
0.0
 40
2.0
100
AcDbArc
 50
90.0
 51
180.0
  0
ARC
  5
22DC
330
3B0D
100
AcDbEntity
  8
Deckel unten
100
AcDbCircle
 10
-145.5478585925964
 20
-397.8962639195968
 30
0.0
 40
2.0
100
AcDbArc
 50
180.0
 51
270.0
  0
ARC
  5
22DD
330
3B0D
100
AcDbEntity
  8
Deckel unten
100
AcDbCircle
 10
-59.54785859259644
 20
-397.8962639195968
 30
0.0
 40
2.0
100
AcDbArc
 50
270.0
 51
0.0
  0
ARC
  5
22DE
330
3B0D
100
AcDbEntity
  8
Deckel unten
100
AcDbCircle
 10
-59.54785859259644
 20
-396.8962639195968
 30
0.0
 40
2.0
100
AcDbArc
 50
0.0
 51
90.0
  0
ARC
  5
22DF
330
3B0D
100
AcDbEntity
  8
Deckel unten
100
AcDbCircle
 10
-33.0
 20
-397.0
 30
0.0
 40
2.0
100
AcDbArc
 50
90.0
 51
180.0
  0
ARC
  5
22E0
330
3B0D
100
AcDbEntity
  8
Deckel unten
100
AcDbCircle
 10
-33.0
 20
-398.0
 30
0.0
 40
2.0
100
AcDbArc
 50
180.0
 51
270.0
  0
ARC
  5
22E1
330
3B0D
100
AcDbEntity
  8
Deckel unten
100
AcDbCircle
 10
53.0
 20
-398.0
 30
0.0
 40
2.0
100
AcDbArc
 50
270.0
 51
0.0
  0
ARC
  5
22E2
330
3B0D
100
AcDbEntity
  8
Deckel unten
100
AcDbCircle
 10
53.0
 20
-397.0
 30
0.0
 40
2.0
100
AcDbArc
 50
0.0
 51
90.0
  0
ARC
  5
22E3
330
3B0D
100
AcDbEntity
  8
Deckel unten
100
AcDbCircle
 10
400.5026002077317
 20
-405.8962639195967
 30
0.0
 40
2.0
100
AcDbArc
 50
180.0
 51
270.0
  0
ARC
  5
22E4
330
3B0D
100
AcDbEntity
  8
Deckel unten
100
AcDbCircle
 10
400.5026002077317
 20
-404.8962639195967
 30
0.0
 40
2.0
100
AcDbArc
 50
90.0
 51
180.0
  0
ARC
  5
22E5
330
3B0D
100
AcDbEntity
  8
Deckel unten
100
AcDbCircle
 10
481.5026002077317
 20
-404.8962639195967
 30
0.0
 40
2.0
100
AcDbArc
 50
0.0
 51
90.0
  0
ARC
  5
22E6
330
3B0D
100
AcDbEntity
  8
Deckel unten
100
AcDbCircle
 10
481.5026002077317
 20
-405.8962639195967
 30
0.0
 40
2.0
100
AcDbArc
 50
270.0
 51
0.0
  0
LINE
  5
22E7
330
3B0D
100
AcDbEntity
  8
Deckel unten
100
AcDbLine
 10
-145.5478585925964
 20
-394.8962639195968
 30
0.0
 11
-59.54785859259644
 21
-394.8962639195968
 31
0.0
  0
LINE
  5
22E9
330
3B0D
100
AcDbEntity
  8
Deckel unten
100
AcDbLine
 10
-145.5478585925964
 20
-399.8962639195968
 30
0.0
 11
-59.54785859259644
 21
-399.8962639195968
 31
0.0
  0
LINE
  5
22EB
330
3B0D
100
AcDbEntity
  8
Deckel unten
100
AcDbLine
 10
-33.0
 20
-395.0
 30
0.0
 11
53.0
 21
-395.0
 31
0.0
  0
LINE
  5
22EC
330
3B0D
100
AcDbEntity
  8
Deckel unten
100
AcDbLine
 10
-33.0
 20
-400.0
 30
0.0
 11
53.0
 21
-400.0
 31
0.0
  0
LINE
  5
22ED
330
3B0D
100
AcDbEntity
  8
Deckel unten
100
AcDbLine
 10
-147.5478585925964
 20
-397.8962639195968
 30
0.0
 11
-147.5478585925964
 21
-396.8962639195968
 31
0.0
  0
LINE
  5
22EE
330
3B0D
100
AcDbEntity
  8
Deckel unten
100
AcDbLine
 10
-57.54785859259644
 20
-396.8962639195968
 30
0.0
 11
-57.54785859259644
 21
-397.8962639195968
 31
0.0
  0
LINE
  5
22EF
330
3B0D
100
AcDbEntity
  8
Deckel unten
100
AcDbLine
 10
-35.0
 20
-398.0
 30
0.0
 11
-35.0
 21
-397.0
 31
0.0
  0
LINE
  5
22F0
330
3B0D
100
AcDbEntity
  8
Deckel unten
100
AcDbLine
 10
55.0
 20
-397.0
 30
0.0
 11
55.0
 21
-398.0
 31
0.0
  0
LINE
  5
22F1
330
3B0D
100
AcDbEntity
  8
Deckel unten
100
AcDbLine
 10
398.5026002077317
 20
-415.8962639195967
 30
0.0
 11
398.5026002077317
 21
-414.8962639195967
 31
0.0
  0
LINE
  5
22F2
330
3B0D
100
AcDbEntity
  8
Deckel unten
100
AcDbLine
 10
483.5026002077317
 20
-414.8962639195967
 30
0.0
 11
483.5026002077317
 21
-415.8962639195967
 31
0.0
  0
ARC
  5
22F3
330
3B0D
100
AcDbEntity
  8
Deckel unten
100
AcDbCircle
 10
-145.5478585925964
 20
-406.8962639195968
 30
0.0
 40
2.0
100
AcDbArc
 50
90.0
 51
180.0
  0
ARC
  5
22F4
330
3B0D
100
AcDbEntity
  8
Deckel unten
100
AcDbCircle
 10
-145.5478585925964
 20
-407.8962639195968
 30
0.0
 40
2.0
100
AcDbArc
 50
180.0
 51
270.0
  0
ARC
  5
22F5
330
3B0D
100
AcDbEntity
  8
Deckel unten
100
AcDbCircle
 10
-59.54785859259644
 20
-407.8962639195968
 30
0.0
 40
2.0
100
AcDbArc
 50
270.0
 51
0.0
  0
ARC
  5
22F6
330
3B0D
100
AcDbEntity
  8
Deckel unten
100
AcDbCircle
 10
-59.54785859259644
 20
-406.8962639195968
 30
0.0
 40
2.0
100
AcDbArc
 50
0.0
 51
90.0
  0
ARC
  5
22F7
330
3B0D
100
AcDbEntity
  8
Deckel unten
100
AcDbCircle
 10
-33.0
 20
-407.0
 30
0.0
 40
2.0
100
AcDbArc
 50
90.0
 51
180.0
  0
ARC
  5
22F8
330
3B0D
100
AcDbEntity
  8
Deckel unten
100
AcDbCircle
 10
-33.0
 20
-408.0
 30
0.0
 40
2.0
100
AcDbArc
 50
180.0
 51
270.0
  0
ARC
  5
22F9
330
3B0D
100
AcDbEntity
  8
Deckel unten
100
AcDbCircle
 10
53.0
 20
-408.0
 30
0.0
 40
2.0
100
AcDbArc
 50
270.0
 51
0.0
  0
ARC
  5
22FA
330
3B0D
100
AcDbEntity
  8
Deckel unten
100
AcDbCircle
 10
53.0
 20
-407.0
 30
0.0
 40
2.0
100
AcDbArc
 50
0.0
 51
90.0
  0
ARC
  5
22FB
330
3B0D
100
AcDbEntity
  8
Deckel unten
100
AcDbCircle
 10
400.5026002077317
 20
-415.8962639195967
 30
0.0
 40
2.0
100
AcDbArc
 50
180.0
 51
270.0
  0
ARC
  5
22FC
330
3B0D
100
AcDbEntity
  8
Deckel unten
100
AcDbCircle
 10
400.5026002077317
 20
-414.8962639195967
 30
0.0
 40
2.0
100
AcDbArc
 50
90.0
 51
180.0
  0
ARC
  5
22FD
330
3B0D
100
AcDbEntity
  8
Deckel unten
100
AcDbCircle
 10
481.5026002077317
 20
-414.8962639195967
 30
0.0
 40
2.0
100
AcDbArc
 50
0.0
 51
90.0
  0
ARC
  5
22FE
330
3B0D
100
AcDbEntity
  8
Deckel unten
100
AcDbCircle
 10
481.5026002077317
 20
-415.8962639195967
 30
0.0
 40
2.0
100
AcDbArc
 50
270.0
 51
0.0
  0
LINE
  5
22FF
330
3B0D
100
AcDbEntity
  8
Deckel unten
100
AcDbLine
 10
-145.5478585925964
 20
-404.8962639195968
 30
0.0
 11
-59.54785859259644
 21
-404.8962639195968
 31
0.0
  0
LINE
  5
2301
330
3B0D
100
AcDbEntity
  8
Deckel unten
100
AcDbLine
 10
-145.5478585925964
 20
-409.8962639195968
 30
0.0
 11
-59.54785859259644
 21
-409.8962639195968
 31
0.0
  0
LINE
  5
2303
330
3B0D
100
AcDbEntity
  8
Deckel unten
100
AcDbLine
 10
-33.0
 20
-405.0
 30
0.0
 11
53.0
 21
-405.0
 31
0.0
  0
LINE
  5
2304
330
3B0D
100
AcDbEntity
  8
Deckel unten
100
AcDbLine
 10
-33.0
 20
-410.0
 30
0.0
 11
53.0
 21
-410.0
 31
0.0
  0
LINE
  5
2305
330
3B0D
100
AcDbEntity
  8
Deckel unten
100
AcDbLine
 10
-147.5478585925964
 20
-407.8962639195968
 30
0.0
 11
-147.5478585925964
 21
-406.8962639195968
 31
0.0
  0
LINE
  5
2306
330
3B0D
100
AcDbEntity
  8
Deckel unten
100
AcDbLine
 10
-57.54785859259644
 20
-406.8962639195968
 30
0.0
 11
-57.54785859259644
 21
-407.8962639195968
 31
0.0
  0
LINE
  5
2307
330
3B0D
100
AcDbEntity
  8
Deckel unten
100
AcDbLine
 10
-35.0
 20
-408.0
 30
0.0
 11
-35.0
 21
-407.0
 31
0.0
  0
LINE
  5
2308
330
3B0D
100
AcDbEntity
  8
Deckel unten
100
AcDbLine
 10
55.0
 20
-407.0
 30
0.0
 11
55.0
 21
-408.0
 31
0.0
  0
LINE
  5
2309
330
3B0D
100
AcDbEntity
  8
Deckel unten
100
AcDbLine
 10
398.5026002077317
 20
-425.8962639195967
 30
0.0
 11
398.5026002077317
 21
-424.8962639195967
 31
0.0
  0
LINE
  5
230A
330
3B0D
100
AcDbEntity
  8
Deckel unten
100
AcDbLine
 10
483.5026002077317
 20
-424.8962639195967
 30
0.0
 11
483.5026002077317
 21
-425.8962639195967
 31
0.0
  0
ARC
  5
230B
330
3B0D
100
AcDbEntity
  8
Deckel unten
100
AcDbCircle
 10
-145.5478585925964
 20
-416.8962639195968
 30
0.0
 40
2.0
100
AcDbArc
 50
90.0
 51
180.0
  0
ARC
  5
230C
330
3B0D
100
AcDbEntity
  8
Deckel unten
100
AcDbCircle
 10
-145.5478585925964
 20
-417.8962639195968
 30
0.0
 40
2.0
100
AcDbArc
 50
180.0
 51
270.0
  0
ARC
  5
230D
330
3B0D
100
AcDbEntity
  8
Deckel unten
100
AcDbCircle
 10
-59.54785859259644
 20
-417.8962639195968
 30
0.0
 40
2.0
100
AcDbArc
 50
270.0
 51
0.0
  0
ARC
  5
230E
330
3B0D
100
AcDbEntity
  8
Deckel unten
100
AcDbCircle
 10
-59.54785859259644
 20
-416.8962639195968
 30
0.0
 40
2.0
100
AcDbArc
 50
0.0
 51
90.0
  0
ARC
  5
230F
330
3B0D
100
AcDbEntity
  8
Deckel unten
100
AcDbCircle
 10
-33.0
 20
-417.0
 30
0.0
 40
2.0
100
AcDbArc
 50
90.0
 51
180.0
  0
ARC
  5
2310
330
3B0D
100
AcDbEntity
  8
Deckel unten
100
AcDbCircle
 10
-33.0
 20
-418.0
 30
0.0
 40
2.0
100
AcDbArc
 50
180.0
 51
270.0
  0
ARC
  5
2311
330
3B0D
100
AcDbEntity
  8
Deckel unten
100
AcDbCircle
 10
53.0
 20
-418.0
 30
0.0
 40
2.0
100
AcDbArc
 50
270.0
 51
0.0
  0
ARC
  5
2312
330
3B0D
100
AcDbEntity
  8
Deckel unten
100
AcDbCircle
 10
53.0
 20
-417.0
 30
0.0
 40
2.0
100
AcDbArc
 50
0.0
 51
90.0
  0
ARC
  5
2313
330
3B0D
100
AcDbEntity
  8
Deckel unten
100
AcDbCircle
 10
400.5026002077317
 20
-425.8962639195967
 30
0.0
 40
2.0
100
AcDbArc
 50
180.0
 51
270.0
  0
ARC
  5
2314
330
3B0D
100
AcDbEntity
  8
Deckel unten
100
AcDbCircle
 10
400.5026002077317
 20
-424.8962639195967
 30
0.0
 40
2.0
100
AcDbArc
 50
90.0
 51
180.0
  0
ARC
  5
2315
330
3B0D
100
AcDbEntity
  8
Deckel unten
100
AcDbCircle
 10
481.5026002077317
 20
-424.8962639195967
 30
0.0
 40
2.0
100
AcDbArc
 50
0.0
 51
90.0
  0
ARC
  5
2316
330
3B0D
100
AcDbEntity
  8
Deckel unten
100
AcDbCircle
 10
481.5026002077317
 20
-425.8962639195967
 30
0.0
 40
2.0
100
AcDbArc
 50
270.0
 51
0.0
  0
LINE
  5
2317
330
3B0D
100
AcDbEntity
  8
Deckel unten
100
AcDbLine
 10
-145.5478585925964
 20
-414.8962639195968
 30
0.0
 11
-59.54785859259644
 21
-414.8962639195968
 31
0.0
  0
LINE
  5
2319
330
3B0D
100
AcDbEntity
  8
Deckel unten
100
AcDbLine
 10
-145.5478585925964
 20
-419.8962639195968
 30
0.0
 11
-59.54785859259644
 21
-419.8962639195968
 31
0.0
  0
LINE
  5
231B
330
3B0D
100
AcDbEntity
  8
Deckel unten
100
AcDbLine
 10
-33.0
 20
-415.0
 30
0.0
 11
53.0
 21
-415.0
 31
0.0
  0
LINE
  5
231C
330
3B0D
100
AcDbEntity
  8
Deckel unten
100
AcDbLine
 10
-33.0
 20
-420.0
 30
0.0
 11
53.0
 21
-420.0
 31
0.0
  0
LINE
  5
231D
330
3B0D
100
AcDbEntity
  8
Deckel unten
100
AcDbLine
 10
-147.5478585925964
 20
-417.8962639195968
 30
0.0
 11
-147.5478585925964
 21
-416.8962639195968
 31
0.0
  0
LINE
  5
231E
330
3B0D
100
AcDbEntity
  8
Deckel unten
100
AcDbLine
 10
-57.54785859259644
 20
-416.8962639195968
 30
0.0
 11
-57.54785859259644
 21
-417.8962639195968
 31
0.0
  0
LINE
  5
231F
330
3B0D
100
AcDbEntity
  8
Deckel unten
100
AcDbLine
 10
-35.0
 20
-418.0
 30
0.0
 11
-35.0
 21
-417.0
 31
0.0
  0
LINE
  5
2320
330
3B0D
100
AcDbEntity
  8
Deckel unten
100
AcDbLine
 10
55.0
 20
-417.0
 30
0.0
 11
55.0
 21
-418.0
 31
0.0
  0
LINE
  5
2321
330
3B0D
100
AcDbEntity
  8
Deckel unten
100
AcDbLine
 10
-145.5478585925964
 20
-364.8962639195968
 30
0.0
 11
-59.54785859259644
 21
-364.8962639195968
 31
0.0
  0
LINE
  5
2323
330
3B0D
100
AcDbEntity
  8
Deckel unten
100
AcDbLine
 10
-145.5478585925964
 20
-369.8962639195968
 30
0.0
 11
-59.54785859259644
 21
-369.8962639195968
 31
0.0
  0
ARC
  5
2327
330
3B0D
100
AcDbEntity
  8
Batterieboden
100
AcDbCircle
 10
475.8582859702097
 20
255.0687238222806
 30
0.0
 40
5.0
100
AcDbArc
 50
0.0
 51
90.0
  0
ARC
  5
2330
330
3B0D
100
AcDbEntity
  8
Batterieboden
100
AcDbCircle
 10
475.9004440005438
 20
89.92654550397421
 30
0.0
 40
5.0
100
AcDbArc
 50
270.0
 51
0.0
  0
CIRCLE
  5
2357
330
3B0D
100
AcDbEntity
  8
Deckel unten
100
AcDbCircle
 10
446.1810840359702
 20
-346.2160195599925
 30
0.0
 40
2.2
  0
LINE
  5
2575
330
3B0D
100
AcDbEntity
  8
Batterieboden
100
AcDbLine
 10
488.4649588583135
 20
297.6075036340942
 30
0.0
 11
488.4649588583135
 21
318.8070280923108
 31
0.0
  0
LINE
  5
2576
330
3B0D
100
AcDbEntity
  8
Batterieboden
100
AcDbLine
 10
-192.5854999420147
 20
297.6075036340942
 30
0.0
 11
-192.5854999420147
 21
318.8215001913762
 31
0.0
  0
LINE
  5
2633
330
3B0D
100
AcDbEntity
  8
Deckel oben
100
AcDbLine
 10
486.3922603153612
 20
317.8694317952281
 30
0.0
 11
486.3922603153612
 21
317.8694317952281
 31
0.0
  0
ARC
  5
2634
330
3B0D
100
AcDbEntity
  8
Deckel oben
100
AcDbCircle
 10
486.3922603153612
 20
319.8694317952281
 30
0.0
 40
2.0
100
AcDbArc
 50
270.0
 51
0.0
  0
LINE
  5
2635
330
3B0D
100
AcDbEntity
  8
Deckel oben
100
AcDbLine
 10
-190.658198484967
 20
317.9127285866645
 30
0.0
 11
-190.658198484967
 21
317.9127285866645
 31
0.0
  0
ARC
  5
2636
330
3B0D
100
AcDbEntity
  8
Deckel oben
100
AcDbCircle
 10
-190.658198484967
 20
319.9127285866645
 30
0.0
 40
2.0
100
AcDbArc
 50
180.0
 51
270.0
  0
LINE
  5
2638
330
3B0D
100
AcDbEntity
  8
Deckel unten
100
AcDbLine
 10
486.5445421218018
 20
-317.3811272210945
 30
0.0
 11
486.5445421218018
 21
-317.3811272210945
 31
0.0
  0
ARC
  5
2639
330
3B0D
100
AcDbEntity
  8
Deckel unten
100
AcDbCircle
 10
486.5445421218018
 20
-319.3811272210945
 30
0.0
 40
2.0
100
AcDbArc
 50
0.0
 51
90.0
  0
LINE
  5
263A
330
3B0D
100
AcDbEntity
  8
Deckel unten
100
AcDbLine
 10
-190.5059166785264
 20
-317.4244240125311
 30
0.0
 11
-190.5059166785264
 21
-317.4244240125311
 31
0.0
  0
ARC
  5
263B
330
3B0D
100
AcDbEntity
  8
Deckel unten
100
AcDbCircle
 10
-190.5059166785264
 20
-319.4244240125311
 30
0.0
 40
2.0
100
AcDbArc
 50
90.0
 51
180.0
  0
LINE
  5
263D
330
3B0D
100
AcDbEntity
  8
Batterieboden
100
AcDbLine
 10
486.4649588583135
 20
25.60820933975304
 30
0.0
 11
486.4649588583135
 21
25.60820933975304
 31
0.0
  0
ARC
  5
263E
330
3B0D
100
AcDbEntity
  8
Batterieboden
100
AcDbCircle
 10
486.4649588583135
 20
27.60820933975304
 30
0.0
 40
2.0
100
AcDbArc
 50
270.0
 51
0.0
  0
LINE
  5
263F
330
3B0D
100
AcDbEntity
  8
Batterieboden
100
AcDbLine
 10
-190.5854999420147
 20
25.6515061311895
 30
0.0
 11
-190.5854999420147
 21
25.6515061311895
 31
0.0
  0
ARC
  5
2640
330
3B0D
100
AcDbEntity
  8
Batterieboden
100
AcDbCircle
 10
-190.5854999420147
 20
27.6515061311895
 30
0.0
 40
2.0
100
AcDbArc
 50
180.0
 51
270.0
  0
CIRCLE
  5
264A
330
3B0D
100
AcDbEntity
  8
Deckel unten
100
AcDbCircle
 10
468.5112238949566
 20
-336.3804215154362
 30
0.0
 40
3.4
  0
CIRCLE
  5
264B
330
3B0D
100
AcDbEntity
  8
Deckel unten
100
AcDbCircle
 10
-172.539946370886
 20
-336.380421515436
 30
0.0
 40
3.4
  0
CIRCLE
  5
264C
330
3B0D
100
AcDbEntity
  8
Deckel unten
100
AcDbCircle
 10
-172.4698655694168
 20
-589.3804215154358
 30
0.0
 40
3.4
  0
CIRCLE
  5
264D
330
3B0D
100
AcDbEntity
  8
Deckel unten
100
AcDbCircle
 10
468.5445421218018
 20
-589.3577112620673
 30
0.0
 40
3.4
  0
LINE
  5
2652
330
3B0D
100
AcDbEntity
  8
Deckel unten
100
AcDbLine
 10
-180.5115688781703
 20
-272.2416424145711
 30
0.0
 11
180.5388899221579
 21
-272.2416424145711
 31
0.0
  0
LINE
  5
2653
330
3B0D
100
AcDbEntity
  8
Deckel unten
100
AcDbLine
 10
152.5462896571124
 20
-656.3739749268309
 30
0.0
 11
-152.504169143216
 21
-656.3868652042212
 31
0.0
  0
LINE
  5
2671
330
3B0D
100
AcDbEntity
  8
Rueckwand
100
AcDbLine
 10
-110.0064144399456
 20
-304.2416424145711
 30
0.0
 11
-100.0087557091029
 21
-304.2416424145711
 31
0.0
  0
LINE
  5
2672
330
3B0D
100
AcDbEntity
  8
Rueckwand
100
AcDbLine
 10
-100.0087557091029
 20
-304.2416424145711
 30
0.0
 11
-100.0087557091029
 21
-294.2416424145711
 31
0.0
  0
LINE
  5
2673
330
3B0D
100
AcDbEntity
  8
Rueckwand
100
AcDbLine
 10
-100.0087557091029
 20
-294.2416424145711
 30
0.0
 11
-110.0064144399456
 21
-294.2416424145711
 31
0.0
  0
LINE
  5
2674
330
3B0D
100
AcDbEntity
  8
Rueckwand
100
AcDbLine
 10
-110.0064144399456
 20
-294.2416424145711
 30
0.0
 11
-110.0064144399456
 21
-304.2416424145711
 31
0.0
  0
LINE
  5
2675
330
3B0D
100
AcDbEntity
  8
Rueckwand
100
AcDbLine
 10
40.04403800030563
 20
-304.2416424145711
 30
0.0
 11
50.04169673114832
 21
-304.2416424145711
 31
0.0
  0
LINE
  5
2676
330
3B0D
100
AcDbEntity
  8
Rueckwand
100
AcDbLine
 10
50.04169673114832
 20
-304.2416424145711
 30
0.0
 11
50.04169673114832
 21
-294.2416424145711
 31
0.0
  0
LINE
  5
2677
330
3B0D
100
AcDbEntity
  8
Rueckwand
100
AcDbLine
 10
50.04169673114832
 20
-294.2416424145711
 30
0.0
 11
40.04403800030563
 21
-294.2416424145711
 31
0.0
  0
LINE
  5
2678
330
3B0D
100
AcDbEntity
  8
Rueckwand
100
AcDbLine
 10
40.04403800030563
 20
-294.2416424145711
 30
0.0
 11
40.04403800030563
 21
-304.2416424145711
 31
0.0
  0
LINE
  5
2679
330
3B0D
100
AcDbEntity
  8
Deckel unten
100
AcDbLine
 10
-110.0064144399456
 20
-304.2416424145711
 30
0.0
 11
-100.0087557091029
 21
-304.2416424145711
 31
0.0
  0
LINE
  5
267A
330
3B0D
100
AcDbEntity
  8
Deckel unten
100
AcDbLine
 10
-100.0087557091029
 20
-304.2416424145711
 30
0.0
 11
-100.0087557091029
 21
-294.2416424145711
 31
0.0
  0
LINE
  5
267B
330
3B0D
100
AcDbEntity
  8
Deckel unten
100
AcDbLine
 10
-100.0087557091029
 20
-294.2416424145711
 30
0.0
 11
-110.0064144399456
 21
-294.2416424145711
 31
0.0
  0
LINE
  5
267C
330
3B0D
100
AcDbEntity
  8
Deckel unten
100
AcDbLine
 10
-110.0064144399456
 20
-294.2416424145711
 30
0.0
 11
-110.0064144399456
 21
-304.2416424145711
 31
0.0
  0
LINE
  5
267D
330
3B0D
100
AcDbEntity
  8
Deckel unten
100
AcDbLine
 10
40.04403800030563
 20
-304.2416424145711
 30
0.0
 11
50.04169673114832
 21
-304.2416424145711
 31
0.0
  0
LINE
  5
267E
330
3B0D
100
AcDbEntity
  8
Deckel unten
100
AcDbLine
 10
50.04169673114832
 20
-304.2416424145711
 30
0.0
 11
50.04169673114832
 21
-294.2416424145711
 31
0.0
  0
LINE
  5
267F
330
3B0D
100
AcDbEntity
  8
Deckel unten
100
AcDbLine
 10
50.04169673114832
 20
-294.2416424145711
 30
0.0
 11
40.04403800030563
 21
-294.2416424145711
 31
0.0
  0
LINE
  5
2680
330
3B0D
100
AcDbEntity
  8
Deckel unten
100
AcDbLine
 10
40.04403800030563
 20
-294.2416424145711
 30
0.0
 11
40.04403800030563
 21
-304.2416424145711
 31
0.0
  0
LINE
  5
2692
330
3B0D
100
AcDbEntity
  8
Batthalter oben
100
AcDbLine
 10
-185.6788125317112
 20
28.60476241027311
 30
0.0
 11
-187.6788125317112
 21
30.0634675381701
 31
0.0
  0
LINE
  5
2693
330
3B0D
100
AcDbEntity
  8
Batthalter oben
100
AcDbLine
 10
-187.6788125317112
 20
30.0634675381701
 30
0.0
 11
-185.6788125317112
 21
28.60476241027311
 31
0.0
  0
LINE
  5
2694
330
3B0D
100
AcDbEntity
  8
Batthalter oben
100
AcDbLine
 10
-185.6788125317112
 20
28.60476241027311
 30
0.0
 11
-187.6788125317112
 21
27.03305318327438
 31
0.0
  0
LINE
  5
26AE
330
3B0D
100
AcDbEntity
  8
Batthalter oben
100
AcDbLine
 10
-187.6788125317109
 20
321.2876933371637
 30
0.0
 11
-185.6788125317109
 21
319.7876933371637
 31
0.0
  0
LINE
  5
26AF
330
3B0D
100
AcDbEntity
  8
Batthalter oben
100
AcDbLine
 10
-185.6788125317109
 20
319.7876933371637
 30
0.0
 11
-187.6788125317109
 21
318.2876933371637
 31
0.0
  0
CIRCLE
  5
26BC
330
3B0D
100
AcDbEntity
  8
Batterieboden
100
AcDbCircle
 10
92.1832947903671
 20
347.3142641418434
 30
0.0
 40
2.7
  0
CIRCLE
  5
26BD
330
3B0D
100
AcDbEntity
  8
Batterieboden
100
AcDbCircle
 10
208.6798909874165
 20
347.3142641418434
 30
0.0
 40
2.7
  0
CIRCLE
  5
2790
330
3B0D
100
AcDbEntity
  8
Haube
100
AcDbCircle
 10
209.0661900864559
 20
-116.1116683891485
 30
0.0
 40
2.7
  0
CIRCLE
  5
2791
330
3B0D
100
AcDbEntity
  8
Haube
100
AcDbCircle
 10
91.55081602312437
 20
-116.1130241066992
 30
0.0
 40
2.7
  0
CIRCLE
  5
2792
330
3B0D
100
AcDbEntity
  8
Haube
100
AcDbCircle
 10
91.5514309550183
 20
-169.4161265836087
 30
0.0
 40
2.7
  0
CIRCLE
  5
2793
330
3B0D
100
AcDbEntity
  8
Haube
100
AcDbCircle
 10
209.0668050183499
 20
-169.4147708660579
 30
0.0
 40
2.7
  0
CIRCLE
  5
2794
330
3B0D
100
AcDbEntity
  8
Haube
100
AcDbCircle
 10
110.0535421948305
 20
-127.8167793846194
 30
0.0
 40
2.0
  0
CIRCLE
  5
2795
330
3B0D
100
AcDbEntity
  8
Haube
100
AcDbCircle
 10
110.0577864064824
 20
-142.8129590457335
 30
0.0
 40
2.0
  0
CIRCLE
  5
2796
330
3B0D
100
AcDbEntity
  8
Haube
100
AcDbCircle
 10
110.0573708951171
 20
-157.8060799477336
 30
0.0
 40
2.0
  0
LINE
  5
2797
330
3B0D
100
AcDbEntity
  8
Haube
100
AcDbLine
 10
190.4315671300321
 20
-133.3292114068416
 30
0.0
 11
190.4317863237646
 21
-152.3292114055771
 31
0.0
  0
LINE
  5
2798
330
3B0D
100
AcDbEntity
  8
Haube
100
AcDbLine
 10
132.4315325243551
 20
-130.3298805247509
 30
0.0
 11
187.431532520695
 21
-130.329246016578
 31
0.0
  0
LINE
  5
2799
330
3B0D
100
AcDbEntity
  8
Haube
100
AcDbLine
 10
129.4317863278238
 20
-152.3299151328235
 30
0.0
 11
129.4315671340914
 21
-133.3299151340881
 31
0.0
  0
LINE
  5
279A
330
3B0D
100
AcDbEntity
  8
Haube
100
AcDbLine
 10
187.4318209335009
 20
-155.3292460149142
 30
0.0
 11
132.4318209371609
 21
-155.3298805230872
 31
0.0
  0
ARC
  5
279B
330
3B0D
100
AcDbEntity
  8
Haube
100
AcDbCircle
 10
187.4315671302318
 20
-133.3292460163783
 30
0.0
 40
3.0
100
AcDbArc
 50
0.0006609934096024
 51
90.00066099346138
  0
ARC
  5
279C
330
3B0D
100
AcDbEntity
  8
Haube
100
AcDbCircle
 10
132.4315671338917
 20
-133.3298805245514
 30
0.0
 40
3.0
100
AcDbArc
 50
90.00066099346138
 51
180.0006609934096
  0
ARC
  5
279D
330
3B0D
100
AcDbEntity
  8
Haube
100
AcDbCircle
 10
132.4317863276243
 20
-152.3298805232868
 30
0.0
 40
3.0
100
AcDbArc
 50
180.0006609934096
 51
270.0006609934613
  0
ARC
  5
279E
330
3B0D
100
AcDbEntity
  8
Haube
100
AcDbCircle
 10
187.4317863239642
 20
-152.3292460151138
 30
0.0
 40
3.0
100
AcDbArc
 50
270.0006609934613
 51
0.0006609934096024
  0
CIRCLE
  5
279F
330
3B0D
100
AcDbEntity
  8
Haube
100
AcDbCircle
 10
150.1228737806314
 20
-181.8819766613012
 30
0.0
 40
8.2
  0
LINE
  5
27AB
330
3B0D
100
AcDbEntity
  8
Rueckwand
100
AcDbLine
 10
-493.4847394603219
 20
347.5917421580456
 30
0.0
 11
-194.69157301252
 21
347.6070886586592
 31
0.0
  0
LINE
  5
27AC
330
3B0D
100
AcDbEntity
  8
Rueckwand
100
AcDbLine
 10
-493.3028918864767
 20
-317.2886270983091
 30
0.0
 11
-194.2741888797664
 21
-317.3064007632615
 31
0.0
  0
LINE
  5
27AE
330
3B0D
100
AcDbEntity
  8
Rueckwand
100
AcDbLine
 10
490.2947188249259
 20
347.7368594348213
 30
0.0
 11
789.253465551126
 21
347.7228994658986
 31
0.0
  0
LINE
  5
27B0
330
3B0D
100
AcDbEntity
  8
Boardhalter
100
AcDbLine
 10
-180.5059166785264
 20
-564.3804215154361
 30
0.0
 11
-118.0050556070985
 21
-564.380421515436
 31
0.0
  0
CIRCLE
  5
27B6
330
3B0D
100
AcDbEntity
  8
WR Halter
100
AcDbCircle
 10
-115.0085635317174
 20
-490.8664722597948
 30
0.0
 40
2.7
  0
CIRCLE
  5
27B7
330
3B0D
100
AcDbEntity
  8
WR Halter
100
AcDbCircle
 10
54.99143646828276
 20
-490.8664722597949
 30
0.0
 40
2.7
  0
CIRCLE
  5
27B8
330
3B0D
100
AcDbEntity
  8
WR Halter
100
AcDbCircle
 10
-30.00856353171733
 20
-480.8664722597948
 30
0.0
 40
2.7
  0
CIRCLE
  5
27B9
330
3B0D
100
AcDbEntity
  8
Deckel unten
100
AcDbCircle
 10
-115.0085635317174
 20
-490.8664722597948
 30
0.0
 40
2.7
  0
CIRCLE
  5
27BA
330
3B0D
100
AcDbEntity
  8
Deckel unten
100
AcDbCircle
 10
-30.00856353171733
 20
-480.8664722597948
 30
0.0
 40
2.7
  0
CIRCLE
  5
27BB
330
3B0D
100
AcDbEntity
  8
Deckel unten
100
AcDbCircle
 10
54.99143646828276
 20
-490.8664722597949
 30
0.0
 40
2.7
  0
CIRCLE
  5
27BE
330
3B0D
100
AcDbEntity
  8
Deckel unten
100
AcDbCircle
 10
-30.02013710380768
 20
-453.7416381584006
 30
0.0
 40
2.7
  0
CIRCLE
  5
27BF
330
3B0D
100
AcDbEntity
  8
Deckel unten
100
AcDbCircle
 10
-115.0235741196071
 20
-443.770891801076
 30
0.0
 40
2.7
  0
CIRCLE
  5
27C0
330
3B0D
100
AcDbEntity
  8
Deckel unten
100
AcDbCircle
 10
54.97641684133725
 20
-443.7123857001417
 30
0.0
 40
2.7
  0
LINE
  5
2875
330
3B0D
100
AcDbEntity
  8
Deckel oben
100
AcDbLine
 10
-192.6581984849669
 20
611.8687260895692
 30
0.0
 11
-192.6581984849669
 21
616.875169816528
 31
0.0
  0
LINE
  5
2878
330
3B0D
100
AcDbEntity
  8
Deckel oben
100
AcDbLine
 10
488.3922603153612
 20
611.8687260895692
 30
0.0
 11
488.3922603153612
 21
616.8622795391377
 31
0.0
  0
LINE
  5
2879
330
3B0D
100
AcDbEntity
  8
Deckel oben
100
AcDbLine
 10
-212.658198484967
 20
601.8687260895692
 30
0.0
 11
-212.658198484967
 21
331.8687260895692
 31
0.0
  0
LINE
  5
287A
330
3B0D
100
AcDbEntity
  8
Deckel oben
100
AcDbLine
 10
508.3922603153612
 20
331.8687260895692
 30
0.0
 11
508.3922603153612
 21
601.8687260895693
 31
0.0
  0
LINE
  5
287B
330
3B0D
100
AcDbEntity
  8
Deckel oben
100
AcDbLine
 10
488.3922603153612
 20
319.8694317952281
 30
0.0
 11
488.3922603153612
 21
321.8687260895692
 31
0.0
  0
LINE
  5
287C
330
3B0D
100
AcDbEntity
  8
Deckel oben
100
AcDbLine
 10
-192.658198484967
 20
319.9127285866645
 30
0.0
 11
-192.658198484967
 21
321.8687260895692
 31
0.0
  0
LINE
  5
287D
330
3B0D
100
AcDbEntity
  8
Deckel unten
100
AcDbLine
 10
-192.5059166785264
 20
-616.3868652423947
 30
0.0
 11
-192.5059166785264
 21
-611.3804215154358
 31
0.0
  0
LINE
  5
287E
330
3B0D
100
AcDbEntity
  8
Deckel unten
100
AcDbLine
 10
-212.5059166785264
 20
-601.3804215154358
 30
0.0
 11
-212.5059166785264
 21
-331.3804215154361
 31
0.0
  0
LINE
  5
287F
330
3B0D
100
AcDbEntity
  8
Deckel unten
100
AcDbLine
 10
-192.5059166785264
 20
-321.380421515436
 30
0.0
 11
-192.5059166785264
 21
-319.4244240125311
 31
0.0
  0
LINE
  5
2880
330
3B0D
100
AcDbEntity
  8
Deckel unten
100
AcDbLine
 10
488.5445421218018
 20
-321.380421515436
 30
0.0
 11
488.5445421218018
 21
-319.3811272210945
 31
0.0
  0
LINE
  5
2881
330
3B0D
100
AcDbEntity
  8
Deckel unten
100
AcDbLine
 10
508.5445421218017
 20
-331.380421515436
 30
0.0
 11
508.5445421218018
 21
-601.3804215154361
 31
0.0
  0
LINE
  5
2882
330
3B0D
100
AcDbEntity
  8
Deckel unten
100
AcDbLine
 10
488.5445421218018
 20
-616.3739749650044
 30
0.0
 11
488.5445421218018
 21
-611.380421515436
 31
0.0
  0
LINE
  5
293A
330
3B0D
100
AcDbEntity
  8
Batthalter oben
100
AcDbLine
 10
-159.8123645029743
 20
43.43184021945581
 30
0.0
 11
-160.8123645029743
 21
43.43184021945581
 31
0.0
  0
LINE
  5
293B
330
3B0D
100
AcDbEntity
  8
Batthalter oben
100
AcDbLine
 10
-160.8123645029743
 20
43.43184021945581
 30
0.0
 11
-160.8123645029743
 21
45.43184021945581
 31
0.0
  0
LINE
  5
293C
330
3B0D
100
AcDbEntity
  8
Batthalter oben
100
AcDbLine
 10
100.1876354970259
 20
43.43184021945581
 30
0.0
 11
101.1876354970259
 21
43.43184021945581
 31
0.0
  0
LINE
  5
293D
330
3B0D
100
AcDbEntity
  8
Batthalter oben
100
AcDbLine
 10
101.1876354970259
 20
43.43184021945581
 30
0.0
 11
101.1876354970259
 21
45.43184021945581
 31
0.0
  0
LINE
  5
2940
330
3B0D
100
AcDbEntity
  8
Batthalter oben
100
AcDbLine
 10
-187.6788125317109
 20
321.2876933371637
 30
0.0
 11
-187.6788125317109
 21
321.7876933371637
 31
0.0
  0
LINE
  5
2944
330
3B0D
100
AcDbEntity
  8
Batthalter oben
100
AcDbLine
 10
-187.6788125317112
 20
24.60476241027311
 30
0.0
 11
-187.6788125317112
 21
27.03305318327438
 31
0.0
  0
LINE
  5
2945
330
3B0D
100
AcDbEntity
  8
Batthalter oben
100
AcDbLine
 10
-187.6788125317112
 20
30.0634675381701
 30
0.0
 11
-187.6788125317109
 21
318.2876933371637
 31
0.0
  0
CIRCLE
  5
29FD
330
3B0D
100
AcDbEntity
  8
Dekoblech
100
AcDbCircle
 10
110.0582371293483
 20
-142.8124968369625
 30
0.0
 40
2.0
  0
CIRCLE
  5
29FE
330
3B0D
100
AcDbEntity
  8
Dekoblech
100
AcDbCircle
 10
110.0576486496604
 20
-157.8056177331715
 30
0.0
 40
2.0
  0
ARC
  5
29FF
330
3B0D
100
AcDbEntity
  8
Dekoblech
100
AcDbCircle
 10
186.9204029273302
 20
-133.8354602303665
 30
0.0
 40
3.0
100
AcDbArc
 50
0.0
 51
90.0
  0
ARC
  5
2A00
330
3B0D
100
AcDbEntity
  8
Dekoblech
100
AcDbCircle
 10
132.9204029273302
 20
-133.8354602303664
 30
0.0
 40
3.0
100
AcDbArc
 50
90.0
 51
180.0
  0
ARC
  5
2A01
330
3B0D
100
AcDbEntity
  8
Dekoblech
100
AcDbCircle
 10
132.9204029273302
 20
-151.8354602303692
 30
0.0
 40
3.0
100
AcDbArc
 50
180.0
 51
270.0
  0
ARC
  5
2A02
330
3B0D
100
AcDbEntity
  8
Dekoblech
100
AcDbCircle
 10
186.9204029273302
 20
-151.8354602303666
 30
0.0
 40
3.0
100
AcDbArc
 50
270.0
 51
0.0
  0
CIRCLE
  5
2A03
330
3B0D
100
AcDbEntity
  8
Dekoblech
100
AcDbCircle
 10
150.1228737806314
 20
-181.8819766613012
 30
0.0
 40
8.2
  0
LINE
  5
2A04
330
3B0D
100
AcDbEntity
  8
Dekoblech
100
AcDbLine
 10
215.2399245097689
 20
-200.083398452419
 30
0.0
 11
82.44755458221263
 21
-200.0833984524191
 31
0.0
  0
LINE
  5
2A05
330
3B0D
100
AcDbEntity
  8
Dekoblech
100
AcDbLine
 10
82.44755458221263
 20
-104.6370174123317
 30
0.0
 11
215.2399245097689
 21
-104.6370174123317
 31
0.0
  0
ARC
  5
2A06
330
3B0D
100
AcDbEntity
  8
Dekoblech
100
AcDbCircle
 10
215.2399245097688
 20
-124.6370174123318
 30
0.0
 40
20.0
100
AcDbArc
 50
0.0
 51
90.0
  0
ARC
  5
2A07
330
3B0D
100
AcDbEntity
  8
Dekoblech
100
AcDbCircle
 10
82.44755458221263
 20
-124.6370174123318
 30
0.0
 40
20.0
100
AcDbArc
 50
90.0
 51
180.0
  0
LINE
  5
2A08
330
3B0D
100
AcDbEntity
  8
Dekoblech
100
AcDbLine
 10
235.2399245097689
 20
-180.083398452419
 30
0.0
 11
235.2399245097689
 21
-124.6370174123318
 31
0.0
  0
ARC
  5
2A09
330
3B0D
100
AcDbEntity
  8
Dekoblech
100
AcDbCircle
 10
82.44755458221266
 20
-180.0833984524193
 30
0.0
 40
20.0
100
AcDbArc
 50
180.0
 51
270.0
  0
LINE
  5
2A0A
330
3B0D
100
AcDbEntity
  8
Dekoblech
100
AcDbLine
 10
62.4475545822126
 20
-180.0833984524192
 30
0.0
 11
62.44755458221263
 21
-124.6370174123317
 31
0.0
  0
ARC
  5
2A0B
330
3B0D
100
AcDbEntity
  8
Dekoblech
100
AcDbCircle
 10
215.2399245097689
 20
-180.083398452419
 30
0.0
 40
20.0
100
AcDbArc
 50
270.0
 51
0.0
  0
LINE
  5
2A0C
330
3B0D
100
AcDbEntity
  8
Dekoblech
100
AcDbLine
 10
189.9204029273302
 20
-151.8354602303663
 30
0.0
 11
189.9204029273302
 21
-133.8354602303665
 31
0.0
  0
LINE
  5
2A0D
330
3B0D
100
AcDbEntity
  8
Dekoblech
100
AcDbLine
 10
186.9204029273302
 20
-130.8354602303665
 30
0.0
 11
132.9204029273302
 21
-130.8354602303663
 31
0.0
  0
LINE
  5
2A0E
330
3B0D
100
AcDbEntity
  8
Dekoblech
100
AcDbLine
 10
129.9204029273302
 20
-133.8354602303663
 30
0.0
 11
129.9204029273302
 21
-151.8354602303674
 31
0.0
  0
LINE
  5
2A0F
330
3B0D
100
AcDbEntity
  8
Dekoblech
100
AcDbLine
 10
132.9204029273302
 20
-154.835460230366
 30
0.0
 11
186.9204029273302
 21
-154.8354602303663
 31
0.0
  0
CIRCLE
  5
2A10
330
3B0D
100
AcDbEntity
  8
Dekoblech
100
AcDbCircle
 10
110.0541659213067
 20
-127.8163171278831
 30
0.0
 40
2.0
  0
CIRCLE
  5
2AD1
330
3B0D
100
AcDbEntity
  8
Boardhalter
100
AcDbCircle
 10
-162.9742232522631
 20
-554.4628757881857
 30
0.0
 40
2.2
  0
CIRCLE
  5
2AD2
330
3B0D
100
AcDbEntity
  8
Boardhalter
100
AcDbCircle
 10
55.06312789966856
 20
-554.4628757881857
 30
0.0
 40
2.2
  0
CIRCLE
  5
2AD3
330
3B0D
100
AcDbEntity
  8
Deckel unten
100
AcDbCircle
 10
55.06312789966856
 20
-554.4628757881857
 30
0.0
 40
2.2
  0
CIRCLE
  5
2AD4
330
3B0D
100
AcDbEntity
  8
Deckel unten
100
AcDbCircle
 10
-162.9742232522631
 20
-554.4628757881857
 30
0.0
 40
2.2
  0
LINE
  5
2AD5
330
3B0D
100
AcDbEntity
  8
Boardhalter
100
AcDbLine
 10
-185.5059166785264
 20
-348.3453300609353
 30
0.0
 11
-185.5059166785264
 21
-543.5804215154361
 31
0.0
  0
LINE
  5
2AD6
330
3B0D
100
AcDbEntity
  8
Boardhalter
100
AcDbLine
 10
-180.5059166785264
 20
-343.3453300609353
 30
0.0
 11
72.54454212180175
 21
-343.3453300609353
 31
0.0
  0
LINE
  5
2AD8
330
3B0D
100
AcDbEntity
  8
Boardhalter
100
AcDbLine
 10
77.54454212180175
 20
-348.3453300609353
 30
0.0
 11
77.54454212180173
 21
-449.5676950620085
 31
0.0
  0
LINE
  5
2AD9
330
3B0D
100
AcDbEntity
  8
Boardhalter
100
AcDbLine
 10
77.54454212180175
 20
-494.5804215154361
 30
0.0
 11
77.54454212180175
 21
-543.5804215154361
 31
0.0
  0
LINE
  5
2ADC
330
3B0D
100
AcDbEntity
  8
Boardhalter
100
AcDbLine
 10
18.02354235370984
 20
-354.3453300609353
 30
0.0
 11
12.36751552621703
 21
-354.3453300609353
 31
0.0
  0
LINE
  5
2ADD
330
3B0D
100
AcDbEntity
  8
Boardhalter
100
AcDbLine
 10
12.36751552621703
 20
-354.3453300609353
 30
0.0
 11
12.36751552621703
 21
-351.3453300609353
 31
0.0
  0
LINE
  5
2ADE
330
3B0D
100
AcDbEntity
  8
Boardhalter
100
AcDbLine
 10
12.36751552621703
 20
-351.3453300609353
 30
0.0
 11
18.02354235370984
 21
-351.3453300609353
 31
0.0
  0
LINE
  5
2ADF
330
3B0D
100
AcDbEntity
  8
Boardhalter
100
AcDbLine
 10
18.02354235370984
 20
-351.3453300609353
 30
0.0
 11
18.02354235370984
 21
-354.3453300609353
 31
0.0
  0
LINE
  5
2AE0
330
3B0D
100
AcDbEntity
  8
Boardhalter
100
AcDbLine
 10
-50.61158418268465
 20
-354.3453300609353
 30
0.0
 11
-56.26838316401056
 21
-354.3453300609353
 31
0.0
  0
LINE
  5
2AE1
330
3B0D
100
AcDbEntity
  8
Boardhalter
100
AcDbLine
 10
-56.26838316401056
 20
-354.3453300609353
 30
0.0
 11
-56.26838316401056
 21
-351.3453300609353
 31
0.0
  0
LINE
  5
2AE2
330
3B0D
100
AcDbEntity
  8
Boardhalter
100
AcDbLine
 10
-56.26838316401056
 20
-351.3453300609353
 30
0.0
 11
-50.61158418268465
 21
-351.3453300609353
 31
0.0
  0
LINE
  5
2AE3
330
3B0D
100
AcDbEntity
  8
Boardhalter
100
AcDbLine
 10
-50.61158418268465
 20
-351.3453300609353
 30
0.0
 11
-50.61158418268465
 21
-354.3453300609353
 31
0.0
  0
LINE
  5
2AE4
330
3B0D
100
AcDbEntity
  8
Boardhalter
100
AcDbLine
 10
-119.4539215856824
 20
-351.3453300609353
 30
0.0
 11
-125.0520368756923
 21
-351.3453300609353
 31
0.0
  0
LINE
  5
2AE5
330
3B0D
100
AcDbEntity
  8
Boardhalter
100
AcDbLine
 10
-125.0520368756923
 20
-351.3453300609353
 30
0.0
 11
-125.0520368756923
 21
-354.3453300609353
 31
0.0
  0
LINE
  5
2AE6
330
3B0D
100
AcDbEntity
  8
Boardhalter
100
AcDbLine
 10
-125.0520368756923
 20
-354.3453300609353
 30
0.0
 11
-119.4539215856824
 21
-354.3453300609353
 31
0.0
  0
LINE
  5
2AE7
330
3B0D
100
AcDbEntity
  8
Boardhalter
100
AcDbLine
 10
-119.4539215856824
 20
-354.3453300609353
 30
0.0
 11
-119.4539215856824
 21
-351.3453300609353
 31
0.0
  0
LINE
  5
2B9E
330
3B0D
100
AcDbEntity
  8
Boardhalter
100
AcDbLine
 10
-177.5059166785264
 20
-382.002706068031
 30
0.0
 11
-174.5059166785264
 21
-382.002706068031
 31
0.0
  0
LINE
  5
2B9F
330
3B0D
100
AcDbEntity
  8
Boardhalter
100
AcDbLine
 10
-174.5059166785264
 20
-382.002706068031
 30
0.0
 11
-174.5059166785264
 21
-387.5163214673445
 31
0.0
  0
LINE
  5
2BA0
330
3B0D
100
AcDbEntity
  8
Boardhalter
100
AcDbLine
 10
-174.5059166785264
 20
-387.5163214673445
 30
0.0
 11
-177.5059166785264
 21
-387.5163214673445
 31
0.0
  0
LINE
  5
2BA1
330
3B0D
100
AcDbEntity
  8
Boardhalter
100
AcDbLine
 10
-177.5059166785264
 20
-387.5163214673445
 30
0.0
 11
-177.5059166785264
 21
-382.002706068031
 31
0.0
  0
CIRCLE
  5
2C57
330
3B0D
100
AcDbEntity
  8
Batterieboden
100
AcDbCircle
 10
-21.30560720537393
 20
309.9242054281837
 30
0.0
 40
6.2
  0
CIRCLE
  5
2C58
330
3B0D
100
AcDbEntity
  8
Batterieboden
100
AcDbCircle
 10
2.71146561951837
 20
309.9242054281837
 30
0.0
 40
6.2
  0
LINE
  5
2C6E
330
3B0D
100
AcDbEntity
  8
Batthalter oben
100
AcDbLine
 10
-160.8123645029742
 20
302.0318402194556
 30
0.0
 11
101.1876354970257
 21
302.0318402194556
 31
0.0
  0
LINE
  5
2C74
330
3B0D
100
AcDbEntity
  8
Rueckwand
100
AcDbLine
 10
-512.9551178809394
 20
302.5872462956794
 30
0.0
 11
-512.9551178809394
 21
332.5872462956794
 31
0.0
  0
LINE
  5
2C75
330
3B0D
100
AcDbEntity
  8
Rueckwand
100
AcDbLine
 10
808.739383599588
 20
302.7273035102241
 30
0.0
 11
808.739383599588
 21
332.7273035102241
 31
0.0
  0
LINE
  5
2C76
330
3B0D
100
AcDbEntity
  8
Haube
100
AcDbLine
 10
-244.5903772717578
 20
315.1022655818761
 30
0.0
 11
-244.5903772717578
 21
345.1022655818761
 31
0.0
  0
LINE
  5
2C77
330
3B0D
100
AcDbEntity
  8
Haube
100
AcDbLine
 10
540.4963350339234
 20
315.1022655818762
 30
0.0
 11
540.4963350339234
 21
345.1022655818762
 31
0.0
  0
LINE
  5
2DEC
330
3B0D
100
AcDbEntity
  8
Haube
100
AcDbLine
 10
-244.5903772717578
 20
315.1022655818761
 30
0.0
 11
-244.5903772717578
 21
253.911705626656
 31
0.0
  0
LINE
  5
2DED
330
3B0D
100
AcDbEntity
  8
Haube
100
AcDbLine
 10
-244.5902121689231
 20
243.9067404399106
 30
0.0
 11
-244.5799195686354
 21
-220.0662267925859
 31
0.0
  0
LINE
  5
2DEE
330
3B0D
100
AcDbEntity
  8
Haube
100
AcDbLine
 10
-244.5796639750607
 20
-230.0849409853686
 30
0.0
 11
-244.5903772717578
 21
-314.8045233842329
 31
0.0
  0
LINE
  5
2DEF
330
3B0D
100
AcDbEntity
  8
Haube
100
AcDbLine
 10
540.4963350339234
 20
-314.8045233842328
 30
0.0
 11
540.4963350339234
 21
-230.0872945211678
 31
0.0
  0
LINE
  5
2DF0
330
3B0D
100
AcDbEntity
  8
Haube
100
AcDbLine
 10
540.5603298234333
 20
-220.1762098628413
 30
0.0
 11
540.5603298234333
 21
243.8720807807966
 31
0.0
  0
LINE
  5
2DF1
330
3B0D
100
AcDbEntity
  8
Haube
100
AcDbLine
 10
540.4963350339234
 20
253.7777174249981
 30
0.0
 11
540.4963350339234
 21
315.1022655818762
 31
0.0
  0
CIRCLE
  5
2EA4
330
3B0D
100
AcDbEntity
  8
Deckel unten
100
AcDbCircle
 10
428.5396769491918
 20
-340.7382468509435
 30
0.0
 40
8.2
  0
LINE
  5
2F63
330
3B0D
100
AcDbEntity
  8
Anlasern
100
AcDbLine
 10
-218.0155045343862
 20
-318.3996559208671
 30
0.0
 11
-218.0155045343862
 21
-333.4044592443333
 31
0.0
  0
LINE
  5
2F67
330
3B0D
100
AcDbEntity
  8
Anlasern
100
AcDbLine
 10
-218.0676992362266
 20
348.6080015274268
 30
0.0
 11
-218.0676992362266
 21
363.6551074789567
 31
0.0
  0
LINE
  5
2F69
330
3B0D
100
AcDbEntity
  8
Anlasern
100
AcDbLine
 10
514.1335502089922
 20
363.7055353165634
 30
0.0
 11
514.1335502089922
 21
348.6853567933042
 31
0.0
  0
LINE
  5
2F6D
330
3B0D
100
AcDbEntity
  8
Anlasern
100
AcDbLine
 10
514.1335502089922
 20
-333.3514858996777
 30
0.0
 11
514.1335502089922
 21
-318.3130627888366
 31
0.0
  0
LINE
  5
2F7A
330
3B0D
100
AcDbEntity
  8
Anlasern
100
AcDbLine
 10
-207.0676992362266
 20
333.560895575897
 30
0.0
 11
-207.0676992362266
 21
363.6551074789567
 31
0.0
  0
LINE
  5
2F7B
330
3B0D
100
AcDbEntity
  8
Anlasern
100
AcDbLine
 10
-207.0155045343862
 20
-303.3948525974008
 30
0.0
 11
-207.0155045343862
 21
-333.4044592443333
 31
0.0
  0
LINE
  5
2F7C
330
3B0D
100
AcDbEntity
  8
Anlasern
100
AcDbLine
 10
-196.0676992362266
 20
333.560895575897
 30
0.0
 11
-196.0676992362266
 21
363.6551074789567
 31
0.0
  0
LINE
  5
2F7D
330
3B0D
100
AcDbEntity
  8
Anlasern
100
AcDbLine
 10
-196.0155045343862
 20
-303.3948525974008
 30
0.0
 11
-196.0155045343862
 21
-333.4044592443333
 31
0.0
  0
LINE
  5
2F7E
330
3B0D
100
AcDbEntity
  8
Anlasern
100
AcDbLine
 10
-185.0676992362266
 20
333.560895575897
 30
0.0
 11
-185.0676992362266
 21
363.6551074789567
 31
0.0
  0
LINE
  5
2F7F
330
3B0D
100
AcDbEntity
  8
Anlasern
100
AcDbLine
 10
-185.0155045343862
 20
-303.3948525974008
 30
0.0
 11
-185.0155045343862
 21
-333.4044592443333
 31
0.0
  0
LINE
  5
2F80
330
3B0D
100
AcDbEntity
  8
Anlasern
100
AcDbLine
 10
-174.0676992362266
 20
333.560895575897
 30
0.0
 11
-174.0676992362266
 21
363.6551074789567
 31
0.0
  0
LINE
  5
2F81
330
3B0D
100
AcDbEntity
  8
Anlasern
100
AcDbLine
 10
-174.0155045343862
 20
-303.3948525974008
 30
0.0
 11
-174.0155045343862
 21
-333.4044592443333
 31
0.0
  0
LINE
  5
2F82
330
3B0D
100
AcDbEntity
  8
Anlasern
100
AcDbLine
 10
-163.0676992362266
 20
333.560895575897
 30
0.0
 11
-163.0676992362266
 21
363.6551074789567
 31
0.0
  0
LINE
  5
2F83
330
3B0D
100
AcDbEntity
  8
Anlasern
100
AcDbLine
 10
-163.0155045343862
 20
-303.3948525974008
 30
0.0
 11
-163.0155045343862
 21
-333.4044592443333
 31
0.0
  0
LINE
  5
2F84
330
3B0D
100
AcDbEntity
  8
Anlasern
100
AcDbLine
 10
503.1335502089922
 20
363.7055353165634
 30
0.0
 11
503.1335502089922
 21
333.665178270045
 31
0.0
  0
LINE
  5
2F85
330
3B0D
100
AcDbEntity
  8
Anlasern
100
AcDbLine
 10
503.1335502089922
 20
-333.3514858996777
 30
0.0
 11
503.1335502089922
 21
-303.2746396779956
 31
0.0
  0
LINE
  5
2F86
330
3B0D
100
AcDbEntity
  8
Anlasern
100
AcDbLine
 10
492.1335502089922
 20
363.7055353165634
 30
0.0
 11
492.1335502089922
 21
333.665178270045
 31
0.0
  0
LINE
  5
2F87
330
3B0D
100
AcDbEntity
  8
Anlasern
100
AcDbLine
 10
492.1335502089922
 20
-333.3514858996777
 30
0.0
 11
492.1335502089922
 21
-303.2746396779956
 31
0.0
  0
LINE
  5
2F88
330
3B0D
100
AcDbEntity
  8
Anlasern
100
AcDbLine
 10
481.1335502089922
 20
363.7055353165634
 30
0.0
 11
481.1335502089922
 21
333.665178270045
 31
0.0
  0
LINE
  5
2F89
330
3B0D
100
AcDbEntity
  8
Anlasern
100
AcDbLine
 10
481.1335502089922
 20
-333.3514858996777
 30
0.0
 11
481.1335502089922
 21
-303.2746396779956
 31
0.0
  0
LINE
  5
2F8A
330
3B0D
100
AcDbEntity
  8
Anlasern
100
AcDbLine
 10
470.1335502089922
 20
363.7055353165634
 30
0.0
 11
470.1335502089922
 21
333.665178270045
 31
0.0
  0
LINE
  5
2F8B
330
3B0D
100
AcDbEntity
  8
Anlasern
100
AcDbLine
 10
470.1335502089922
 20
-333.3514858996777
 30
0.0
 11
470.1335502089922
 21
-303.2746396779956
 31
0.0
  0
LINE
  5
2F8C
330
3B0D
100
AcDbEntity
  8
Anlasern
100
AcDbLine
 10
459.1335502089922
 20
363.7055353165634
 30
0.0
 11
459.1335502089922
 21
333.665178270045
 31
0.0
  0
LINE
  5
2F8D
330
3B0D
100
AcDbEntity
  8
Anlasern
100
AcDbLine
 10
459.1335502089922
 20
-333.3514858996777
 30
0.0
 11
459.1335502089922
 21
-303.2746396779956
 31
0.0
  0
ARC
  5
2F91
330
3B0D
100
AcDbEntity
  8
Haube
100
AcDbCircle
 10
-242.5799195691276
 20
-220.0661824253447
 30
0.0
 40
2.0
100
AcDbArc
 50
180.0012710278271
 51
270.2714864634578
  0
ARC
  5
2F92
330
3B0D
100
AcDbEntity
  8
Haube
100
AcDbCircle
 10
-242.5796639910519
 20
-230.0851938973001
 30
0.0
 40
2.0
100
AcDbArc
 50
90.08365684347949
 51
179.9927546068521
  0
ARC
  5
2F93
330
3B0D
100
AcDbEntity
  8
Haube
100
AcDbCircle
 10
-242.5902121694152
 20
243.9067848071519
 30
0.0
 40
2.0
100
AcDbArc
 50
90.09794302730694
 51
180.0012710278271
  0
ARC
  5
2F94
330
3B0D
100
AcDbEntity
  8
Haube
100
AcDbCircle
 10
-242.5903772717578
 20
253.911705626656
 30
0.0
 40
2.0
100
AcDbArc
 50
180.0
 51
270.2701661321724
  0
ARC
  5
2F95
330
3B0D
100
AcDbEntity
  8
Haube
100
AcDbCircle
 10
538.5603298234333
 20
243.8720807807966
 30
0.0
 40
2.0
100
AcDbArc
 50
0.0
 51
90.63441474771253
  0
ARC
  5
2F96
330
3B0D
100
AcDbEntity
  8
Haube
100
AcDbCircle
 10
538.4963350339234
 20
253.7777174249981
 30
0.0
 40
2.0
100
AcDbArc
 50
270.1160953102604
 51
0.0
  0
ARC
  5
2F97
330
3B0D
100
AcDbEntity
  8
Haube
100
AcDbCircle
 10
538.4963350339234
 20
-230.0872945211678
 30
0.0
 40
2.0
100
AcDbArc
 50
0.0
 51
89.79776180840027
  0
ARC
  5
2F98
330
3B0D
100
AcDbEntity
  8
Haube
100
AcDbCircle
 10
538.5603298234333
 20
-220.1762098628413
 30
0.0
 40
2.0
100
AcDbArc
 50
269.221524442888
 51
0.0
  0
ARC
  5
2F99
330
3B0D
100
AcDbEntity
  8
Haube
100
AcDbCircle
 10
-236.5192472825442
 20
253.9403329684479
 30
0.0
 40
2.0
100
AcDbArc
 50
270.2701661321724
 51
0.2701661321730718
  0
ARC
  5
2F9A
330
3B0D
100
AcDbEntity
  8
Haube
100
AcDbCircle
 10
532.2608755869982
 20
253.7650828366222
 30
0.0
 40
2.0
100
AcDbArc
 50
180.1096247914443
 51
270.1160953102604
  0
ARC
  5
2F9B
330
3B0D
100
AcDbEntity
  8
Haube
100
AcDbCircle
 10
532.177715691013
 20
-220.0894841928573
 30
0.0
 40
2.0
100
AcDbArc
 50
179.2106230071616
 51
269.221524442888
  0
ARC
  5
2F9C
330
3B0D
100
AcDbEntity
  8
Haube
100
AcDbCircle
 10
-236.2867538047698
 20
-220.0363630892902
 30
0.0
 40
2.0
100
AcDbArc
 50
270.2714864634578
 51
0.3930611361832024
  0
LINE
  5
3051
330
3B0D
100
AcDbEntity
  8
Anlasern
100
AcDbLine
 10
-152.0676992362266
 20
348.6080015274268
 30
0.0
 11
-152.0676992362266
 21
363.6551074789567
 31
0.0
  0
LINE
  5
3052
330
3B0D
100
AcDbEntity
  8
Anlasern
100
AcDbLine
 10
448.1335502089922
 20
363.7055353165634
 30
0.0
 11
448.1335502089922
 21
348.6853567933042
 31
0.0
  0
LINE
  5
3053
330
3B0D
100
AcDbEntity
  8
Anlasern
100
AcDbLine
 10
448.1335502089922
 20
-333.3514858996777
 30
0.0
 11
448.1335502089922
 21
-318.3130627888366
 31
0.0
  0
LINE
  5
3054
330
3B0D
100
AcDbEntity
  8
Anlasern
100
AcDbLine
 10
-152.0155045343862
 20
-318.3996559208671
 30
0.0
 11
-152.0155045343862
 21
-333.4044592443333
 31
0.0
  0
LINE
  5
3107
330
3B0D
100
AcDbEntity
  8
Batterieboden
100
AcDbLine
 10
-167.5917450219183
 20
320.8215001913762
 30
0.0
 11
-167.5917450219183
 21
347.3965619654019
 31
0.0
  0
LINE
  5
3108
330
3B0D
100
AcDbEntity
  8
Batterieboden
100
AcDbLine
 10
468.4641208314382
 20
320.8070280923107
 30
0.0
 11
468.4641208314381
 21
347.3827976841303
 31
0.0
  0
LINE
  5
31BB
330
3B0D
100
AcDbEntity
  8
WR Halter
100
AcDbLine
 10
-109.9466750046497
 20
-445.3493141977924
 30
0.0
 11
-99.94901627380696
 21
-445.3493141977924
 31
0.0
  0
LINE
  5
31BC
330
3B0D
100
AcDbEntity
  8
WR Halter
100
AcDbLine
 10
-99.94901627380696
 20
-445.3493141977924
 30
0.0
 11
-99.94901627380696
 21
-435.3493141977924
 31
0.0
  0
LINE
  5
31BD
330
3B0D
100
AcDbEntity
  8
WR Halter
100
AcDbLine
 10
-99.94901627380696
 20
-435.3493141977924
 30
0.0
 11
-109.9466750046497
 21
-435.3493141977924
 31
0.0
  0
LINE
  5
31BE
330
3B0D
100
AcDbEntity
  8
WR Halter
100
AcDbLine
 10
-109.9466750046497
 20
-435.3493141977924
 30
0.0
 11
-109.9466750046497
 21
-445.3493141977924
 31
0.0
  0
LINE
  5
31BF
330
3B0D
100
AcDbEntity
  8
WR Halter
100
AcDbLine
 10
40.1037774356016
 20
-445.3493141977924
 30
0.0
 11
50.10143616644429
 21
-445.3493141977924
 31
0.0
  0
LINE
  5
31C0
330
3B0D
100
AcDbEntity
  8
WR Halter
100
AcDbLine
 10
50.10143616644429
 20
-445.3493141977924
 30
0.0
 11
50.10143616644429
 21
-435.3493141977924
 31
0.0
  0
LINE
  5
31C1
330
3B0D
100
AcDbEntity
  8
WR Halter
100
AcDbLine
 10
50.10143616644429
 20
-435.3493141977924
 30
0.0
 11
40.1037774356016
 21
-435.3493141977924
 31
0.0
  0
LINE
  5
31C2
330
3B0D
100
AcDbEntity
  8
WR Halter
100
AcDbLine
 10
40.1037774356016
 20
-435.3493141977924
 30
0.0
 11
40.1037774356016
 21
-445.3493141977924
 31
0.0
  0
CIRCLE
  5
33DC
330
3B0D
100
AcDbEntity
  8
Batthalter oben
100
AcDbCircle
 10
-21.70225688641926
 20
311.5566373092001
 30
0.0
 40
6.2
  0
CIRCLE
  5
33DE
330
3B0D
100
AcDbEntity
  8
Batthalter oben
100
AcDbCircle
 10
3.29774311358074
 20
311.5566373092001
 30
0.0
 40
6.2
  0
LINE
  5
35F9
330
3B0D
100
AcDbEntity
  8
Batterieboden
100
AcDbLine
 10
172.255561577859
 20
304.0496441014561
 30
0.0
 11
172.255561577859
 21
312.2772341578884
 31
0.0
  0
LINE
  5
35FA
330
3B0D
100
AcDbEntity
  8
Batterieboden
100
AcDbLine
 10
202.4249083223692
 20
312.2772341578884
 30
0.0
 11
202.4249083223692
 21
304.0496441014561
 31
0.0
  0
LINE
  5
35FE
330
3B0D
100
AcDbEntity
  8
Boardhalter
100
AcDbLine
 10
-175.5059166785264
 20
-539.093284525481
 30
0.0
 11
-167.4667795856822
 21
-539.093284525481
 31
0.0
  0
LINE
  5
35FF
330
3B0D
100
AcDbEntity
  8
Boardhalter
100
AcDbLine
 10
-165.4667795856822
 20
-537.093284525481
 30
0.0
 11
-165.4667795856822
 21
-511.0392127513291
 31
0.0
  0
LINE
  5
3600
330
3B0D
100
AcDbEntity
  8
Boardhalter
100
AcDbLine
 10
-167.4667795856822
 20
-509.039212751329
 30
0.0
 11
-175.5059166785264
 21
-509.039212751329
 31
0.0
  0
LINE
  5
3601
330
3B0D
100
AcDbEntity
  8
Boardhalter
100
AcDbLine
 10
-177.5059166785264
 20
-511.039212751329
 30
0.0
 11
-177.5059166785264
 21
-537.093284525481
 31
0.0
  0
ARC
  5
3602
330
3B0D
100
AcDbEntity
  8
Boardhalter
100
AcDbCircle
 10
-175.5059166785264
 20
-511.039212751329
 30
0.0
 40
2.0
100
AcDbArc
 50
90.0
 51
180.0
  0
ARC
  5
3603
330
3B0D
100
AcDbEntity
  8
Boardhalter
100
AcDbCircle
 10
-167.4667795856822
 20
-511.0392127513291
 30
0.0
 40
2.0
100
AcDbArc
 50
0.0
 51
90.0
  0
ARC
  5
3604
330
3B0D
100
AcDbEntity
  8
Boardhalter
100
AcDbCircle
 10
-167.4667795856822
 20
-537.093284525481
 30
0.0
 40
2.0
100
AcDbArc
 50
270.0
 51
0.0
  0
ARC
  5
3605
330
3B0D
100
AcDbEntity
  8
Boardhalter
100
AcDbCircle
 10
-175.5059166785264
 20
-537.093284525481
 30
0.0
 40
2.0
100
AcDbArc
 50
180.0
 51
270.0
  0
LINE
  5
3607
330
3B0D
100
AcDbEntity
  8
Boardhalter
100
AcDbLine
 10
63.88851529430895
 20
-492.396569196467
 30
0.0
 11
69.54454212180175
 21
-492.396569196467
 31
0.0
  0
LINE
  5
3608
330
3B0D
100
AcDbEntity
  8
Boardhalter
100
AcDbLine
 10
69.54454212180175
 20
-492.396569196467
 30
0.0
 11
69.54454212180175
 21
-495.396569196467
 31
0.0
  0
LINE
  5
3609
330
3B0D
100
AcDbEntity
  8
Boardhalter
100
AcDbLine
 10
69.54454212180175
 20
-495.396569196467
 30
0.0
 11
63.88851529430895
 21
-495.396569196467
 31
0.0
  0
LINE
  5
360A
330
3B0D
100
AcDbEntity
  8
Boardhalter
100
AcDbLine
 10
63.88851529430895
 20
-495.396569196467
 30
0.0
 11
63.88851529430895
 21
-492.396569196467
 31
0.0
  0
LINE
  5
360F
330
3B0D
100
AcDbEntity
  8
Boardhalter
100
AcDbLine
 10
63.88851529430895
 20
-512.396569196467
 30
0.0
 11
69.54454212180175
 21
-512.396569196467
 31
0.0
  0
LINE
  5
3610
330
3B0D
100
AcDbEntity
  8
Boardhalter
100
AcDbLine
 10
69.54454212180175
 20
-512.396569196467
 30
0.0
 11
69.54454212180175
 21
-515.396569196467
 31
0.0
  0
LINE
  5
3611
330
3B0D
100
AcDbEntity
  8
Boardhalter
100
AcDbLine
 10
69.54454212180175
 20
-515.396569196467
 30
0.0
 11
63.88851529430895
 21
-515.396569196467
 31
0.0
  0
LINE
  5
3612
330
3B0D
100
AcDbEntity
  8
Boardhalter
100
AcDbLine
 10
63.88851529430895
 20
-515.396569196467
 30
0.0
 11
63.88851529430895
 21
-512.396569196467
 31
0.0
  0
LINE
  5
3613
330
3B0D
100
AcDbEntity
  8
Batthalter oben
100
AcDbLine
 10
174.3108252632853
 20
307.2931880275828
 30
0.0
 11
200.2317862960971
 21
307.2931880275828
 31
0.0
  0
LINE
  5
3614
330
3B0D
100
AcDbEntity
  8
Batthalter oben
100
AcDbLine
 10
202.2317862960971
 20
309.2931880275827
 30
0.0
 11
202.2317862960971
 21
317.2615724407075
 31
0.0
  0
LINE
  5
3615
330
3B0D
100
AcDbEntity
  8
Batthalter oben
100
AcDbLine
 10
200.2317862960971
 20
319.2615724407075
 30
0.0
 11
174.3108252632853
 21
319.2615724407075
 31
0.0
  0
LINE
  5
3616
330
3B0D
100
AcDbEntity
  8
Batthalter oben
100
AcDbLine
 10
172.3108252632853
 20
317.2615724407074
 30
0.0
 11
172.3108252632853
 21
309.2931880275828
 31
0.0
  0
ARC
  5
3617
330
3B0D
100
AcDbEntity
  8
Batthalter oben
100
AcDbCircle
 10
174.3108252632853
 20
317.2615724407074
 30
0.0
 40
2.0
100
AcDbArc
 50
90.0
 51
180.0
  0
ARC
  5
3618
330
3B0D
100
AcDbEntity
  8
Batthalter oben
100
AcDbCircle
 10
200.2317862960971
 20
317.2615724407075
 30
0.0
 40
2.0
100
AcDbArc
 50
0.0
 51
90.0
  0
ARC
  5
3619
330
3B0D
100
AcDbEntity
  8
Batthalter oben
100
AcDbCircle
 10
200.2317862960971
 20
309.2931880275827
 30
0.0
 40
2.0
100
AcDbArc
 50
270.0
 51
0.0
  0
ARC
  5
361A
330
3B0D
100
AcDbEntity
  8
Batthalter oben
100
AcDbCircle
 10
174.3108252632853
 20
309.2931880275828
 30
0.0
 40
2.0
100
AcDbArc
 50
180.0
 51
270.0
  0
LINE
  5
361C
330
3B0D
100
AcDbEntity
  8
Batterieboden
100
AcDbLine
 10
468.4641208314382
 20
320.8215001913762
 30
0.0
 11
468.4641208314382
 21
320.8070280923107
 31
0.0
  0
LINE
  5
361F
330
3B0D
100
AcDbEntity
  8
Batterieboden
100
AcDbLine
 10
-149.7138533563068
 20
320.8215001913762
 30
0.0
 11
-141.6436657109333
 21
320.8215001913762
 31
0.0
  0
LINE
  5
3620
330
3B0D
100
AcDbEntity
  8
Batterieboden
100
AcDbLine
 10
-139.6436657109333
 20
322.8215001913762
 30
0.0
 11
-139.6436657109333
 21
348.9193844446142
 31
0.0
  0
LINE
  5
3621
330
3B0D
100
AcDbEntity
  8
Batterieboden
100
AcDbLine
 10
-141.6436657109333
 20
350.9193844446142
 30
0.0
 11
-149.7138533563068
 21
350.9193844446142
 31
0.0
  0
LINE
  5
3622
330
3B0D
100
AcDbEntity
  8
Batterieboden
100
AcDbLine
 10
-151.7138533563068
 20
348.9193844446142
 30
0.0
 11
-151.7138533563068
 21
322.8215001913762
 31
0.0
  0
ARC
  5
3623
330
3B0D
100
AcDbEntity
  8
Batterieboden
100
AcDbCircle
 10
-149.7138533563068
 20
348.9193844446142
 30
0.0
 40
2.0
100
AcDbArc
 50
90.0
 51
180.0
  0
ARC
  5
3624
330
3B0D
100
AcDbEntity
  8
Batterieboden
100
AcDbCircle
 10
-141.6436657109333
 20
348.9193844446142
 30
0.0
 40
2.0
100
AcDbArc
 50
0.0
 51
90.0
  0
ARC
  5
3625
330
3B0D
100
AcDbEntity
  8
Batterieboden
100
AcDbCircle
 10
-141.6436657109333
 20
322.8215001913762
 30
0.0
 40
2.0
100
AcDbArc
 50
270.0
 51
0.0
  0
ARC
  5
3626
330
3B0D
100
AcDbEntity
  8
Batterieboden
100
AcDbCircle
 10
-149.7138533563068
 20
322.8215001913762
 30
0.0
 40
2.0
100
AcDbArc
 50
180.0
 51
270.0
  0
LINE
  5
3627
330
3B0D
100
AcDbEntity
  8
Batterieboden
100
AcDbLine
 10
-190.5854999420147
 20
320.8215001913762
 30
0.0
 11
-167.5917450219183
 21
320.8215001913762
 31
0.0
  0
LINE
  5
362D
330
3B0D
100
AcDbEntity
  8
Batterieboden
100
AcDbLine
 10
440.8582859702097
 20
260.0687238222806
 30
0.0
 11
475.8582859702097
 21
260.0687238222806
 31
0.0
  0
LINE
  5
362E
330
3B0D
100
AcDbEntity
  8
Batterieboden
100
AcDbLine
 10
475.9004440005438
 20
84.9265455039742
 30
0.0
 11
435.9426020308779
 21
84.9265455039742
 31
0.0
  0
ARC
  5
36EF
330
3B0D
100
AcDbEntity
  8
Rueckwand
100
AcDbCircle
 10
653.27623470102
 20
293.8376355507713
 30
0.0
 40
2.0
100
AcDbArc
 50
180.0
 51
270.0
  0
ARC
  5
36F0
330
3B0D
100
AcDbEntity
  8
Rueckwand
100
AcDbCircle
 10
653.27623470102
 20
294.8376355507713
 30
0.0
 40
2.0
100
AcDbArc
 50
90.0
 51
180.0
  0
ARC
  5
36F1
330
3B0D
100
AcDbEntity
  8
Rueckwand
100
AcDbCircle
 10
739.27623470102
 20
294.8376355507713
 30
0.0
 40
2.0
100
AcDbArc
 50
0.0
 51
90.0
  0
ARC
  5
36F2
330
3B0D
100
AcDbEntity
  8
Rueckwand
100
AcDbCircle
 10
739.27623470102
 20
293.8376355507713
 30
0.0
 40
2.0
100
AcDbArc
 50
270.0
 51
0.0
  0
ARC
  5
36F3
330
3B0D
100
AcDbEntity
  8
Rueckwand
100
AcDbCircle
 10
540.2752729427771
 20
293.7239337284851
 30
0.0
 40
2.0
100
AcDbArc
 50
180.0
 51
270.0
  0
LINE
  5
36F4
330
3B0D
100
AcDbEntity
  8
Rueckwand
100
AcDbLine
 10
653.27623470102
 20
296.8376355507713
 30
0.0
 11
739.27623470102
 21
296.8376355507713
 31
0.0
  0
ARC
  5
36F5
330
3B0D
100
AcDbEntity
  8
Rueckwand
100
AcDbCircle
 10
540.2752729427771
 20
294.7239337284851
 30
0.0
 40
2.0
100
AcDbArc
 50
90.0
 51
180.0
  0
ARC
  5
36F6
330
3B0D
100
AcDbEntity
  8
Rueckwand
100
AcDbCircle
 10
626.2752729427771
 20
294.7239337284851
 30
0.0
 40
2.0
100
AcDbArc
 50
0.0
 51
90.0
  0
LINE
  5
36F7
330
3B0D
100
AcDbEntity
  8
Rueckwand
100
AcDbLine
 10
651.27623470102
 20
293.8376355507713
 30
0.0
 11
651.27623470102
 21
294.8376355507713
 31
0.0
  0
LINE
  5
36F8
330
3B0D
100
AcDbEntity
  8
Rueckwand
100
AcDbLine
 10
653.27623470102
 20
291.8376355507713
 30
0.0
 11
739.27623470102
 21
291.8376355507713
 31
0.0
  0
ARC
  5
36F9
330
3B0D
100
AcDbEntity
  8
Rueckwand
100
AcDbCircle
 10
626.2752729427771
 20
293.7239337284851
 30
0.0
 40
2.0
100
AcDbArc
 50
270.0
 51
0.0
  0
LINE
  5
36FA
330
3B0D
100
AcDbEntity
  8
Rueckwand
100
AcDbLine
 10
741.27623470102
 20
294.8376355507713
 30
0.0
 11
741.27623470102
 21
293.8376355507713
 31
0.0
  0
LINE
  5
36FB
330
3B0D
100
AcDbEntity
  8
Rueckwand
100
AcDbLine
 10
540.2752729427771
 20
296.7239337284851
 30
0.0
 11
626.2752729427771
 21
296.7239337284851
 31
0.0
  0
LINE
  5
36FC
330
3B0D
100
AcDbEntity
  8
Rueckwand
100
AcDbLine
 10
538.2752729427771
 20
293.7239337284851
 30
0.0
 11
538.2752729427771
 21
294.7239337284851
 31
0.0
  0
LINE
  5
36FD
330
3B0D
100
AcDbEntity
  8
Rueckwand
100
AcDbLine
 10
540.2752729427771
 20
291.7239337284851
 30
0.0
 11
626.2752729427771
 21
291.7239337284851
 31
0.0
  0
LINE
  5
36FE
330
3B0D
100
AcDbEntity
  8
Rueckwand
100
AcDbLine
 10
628.2752729427771
 20
294.7239337284851
 30
0.0
 11
628.2752729427771
 21
293.7239337284851
 31
0.0
  0
LINE
  5
3869
330
3B0D
100
AcDbEntity
  8
Deckel unten
100
AcDbLine
 10
398.5026002077317
 20
-475.8962639195967
 30
0.0
 11
398.5026002077317
 21
-474.8962639195967
 31
0.0
  0
LINE
  5
386A
330
3B0D
100
AcDbEntity
  8
Deckel unten
100
AcDbLine
 10
483.5026002077317
 20
-474.8962639195967
 30
0.0
 11
483.5026002077317
 21
-475.8962639195967
 31
0.0
  0
ARC
  5
386B
330
3B0D
100
AcDbEntity
  8
Deckel unten
100
AcDbCircle
 10
400.5026002077317
 20
-445.8962639195967
 30
0.0
 40
2.0
100
AcDbArc
 50
180.0
 51
270.0
  0
ARC
  5
386C
330
3B0D
100
AcDbEntity
  8
Deckel unten
100
AcDbCircle
 10
400.5026002077317
 20
-444.8962639195967
 30
0.0
 40
2.0
100
AcDbArc
 50
90.0
 51
180.0
  0
ARC
  5
386D
330
3B0D
100
AcDbEntity
  8
Deckel unten
100
AcDbCircle
 10
481.5026002077317
 20
-444.8962639195967
 30
0.0
 40
2.0
100
AcDbArc
 50
0.0
 51
90.0
  0
ARC
  5
386E
330
3B0D
100
AcDbEntity
  8
Deckel unten
100
AcDbCircle
 10
481.5026002077317
 20
-445.8962639195967
 30
0.0
 40
2.0
100
AcDbArc
 50
270.0
 51
0.0
  0
ARC
  5
386F
330
3B0D
100
AcDbEntity
  8
Deckel unten
100
AcDbCircle
 10
400.5026002077317
 20
-475.8962639195967
 30
0.0
 40
2.0
100
AcDbArc
 50
180.0
 51
270.0
  0
ARC
  5
3871
330
3B0D
100
AcDbEntity
  8
Deckel unten
100
AcDbCircle
 10
400.5026002077317
 20
-474.8962639195967
 30
0.0
 40
2.0
100
AcDbArc
 50
90.0
 51
180.0
  0
ARC
  5
3872
330
3B0D
100
AcDbEntity
  8
Deckel unten
100
AcDbCircle
 10
481.5026002077317
 20
-474.8962639195967
 30
0.0
 40
2.0
100
AcDbArc
 50
0.0
 51
90.0
  0
ARC
  5
3874
330
3B0D
100
AcDbEntity
  8
Deckel unten
100
AcDbCircle
 10
481.5026002077317
 20
-475.8962639195967
 30
0.0
 40
2.0
100
AcDbArc
 50
270.0
 51
0.0
  0
LINE
  5
3877
330
3B0D
100
AcDbEntity
  8
Deckel unten
100
AcDbLine
 10
398.5026002077317
 20
-455.8962639195967
 30
0.0
 11
398.5026002077317
 21
-454.8962639195967
 31
0.0
  0
LINE
  5
3878
330
3B0D
100
AcDbEntity
  8
Deckel unten
100
AcDbLine
 10
483.5026002077317
 20
-454.8962639195967
 30
0.0
 11
483.5026002077317
 21
-455.8962639195967
 31
0.0
  0
LINE
  5
3879
330
3B0D
100
AcDbEntity
  8
Deckel unten
100
AcDbLine
 10
398.5026002077317
 20
-485.8962639195967
 30
0.0
 11
398.5026002077317
 21
-484.8962639195967
 31
0.0
  0
LINE
  5
387A
330
3B0D
100
AcDbEntity
  8
Deckel unten
100
AcDbLine
 10
483.5026002077317
 20
-484.8962639195967
 30
0.0
 11
483.5026002077317
 21
-485.8962639195967
 31
0.0
  0
ARC
  5
387B
330
3B0D
100
AcDbEntity
  8
Deckel unten
100
AcDbCircle
 10
400.5026002077317
 20
-455.8962639195967
 30
0.0
 40
2.0
100
AcDbArc
 50
180.0
 51
270.0
  0
ARC
  5
387C
330
3B0D
100
AcDbEntity
  8
Deckel unten
100
AcDbCircle
 10
400.5026002077317
 20
-454.8962639195967
 30
0.0
 40
2.0
100
AcDbArc
 50
90.0
 51
180.0
  0
ARC
  5
387D
330
3B0D
100
AcDbEntity
  8
Deckel unten
100
AcDbCircle
 10
481.5026002077317
 20
-454.8962639195967
 30
0.0
 40
2.0
100
AcDbArc
 50
0.0
 51
90.0
  0
ARC
  5
387E
330
3B0D
100
AcDbEntity
  8
Deckel unten
100
AcDbCircle
 10
481.5026002077317
 20
-455.8962639195967
 30
0.0
 40
2.0
100
AcDbArc
 50
270.0
 51
0.0
  0
ARC
  5
3880
330
3B0D
100
AcDbEntity
  8
Deckel unten
100
AcDbCircle
 10
400.5026002077317
 20
-485.8962639195967
 30
0.0
 40
2.0
100
AcDbArc
 50
180.0
 51
270.0
  0
ARC
  5
3881
330
3B0D
100
AcDbEntity
  8
Deckel unten
100
AcDbCircle
 10
400.5026002077317
 20
-484.8962639195967
 30
0.0
 40
2.0
100
AcDbArc
 50
90.0
 51
180.0
  0
ARC
  5
3883
330
3B0D
100
AcDbEntity
  8
Deckel unten
100
AcDbCircle
 10
481.5026002077317
 20
-484.8962639195967
 30
0.0
 40
2.0
100
AcDbArc
 50
0.0
 51
90.0
  0
ARC
  5
3884
330
3B0D
100
AcDbEntity
  8
Deckel unten
100
AcDbCircle
 10
481.5026002077317
 20
-485.8962639195967
 30
0.0
 40
2.0
100
AcDbArc
 50
270.0
 51
0.0
  0
LINE
  5
3887
330
3B0D
100
AcDbEntity
  8
Deckel unten
100
AcDbLine
 10
398.5026002077317
 20
-465.8962639195967
 30
0.0
 11
398.5026002077317
 21
-464.8962639195967
 31
0.0
  0
LINE
  5
3888
330
3B0D
100
AcDbEntity
  8
Deckel unten
100
AcDbLine
 10
483.5026002077317
 20
-464.8962639195967
 30
0.0
 11
483.5026002077317
 21
-465.8962639195967
 31
0.0
  0
LINE
  5
3889
330
3B0D
100
AcDbEntity
  8
Deckel unten
100
AcDbLine
 10
398.5026002077317
 20
-435.8962639195967
 30
0.0
 11
398.5026002077317
 21
-434.8962639195967
 31
0.0
  0
LINE
  5
388A
330
3B0D
100
AcDbEntity
  8
Deckel unten
100
AcDbLine
 10
483.5026002077317
 20
-434.8962639195967
 30
0.0
 11
483.5026002077317
 21
-435.8962639195967
 31
0.0
  0
ARC
  5
388D
330
3B0D
100
AcDbEntity
  8
Deckel unten
100
AcDbCircle
 10
400.5026002077317
 20
-465.8962639195967
 30
0.0
 40
2.0
100
AcDbArc
 50
180.0
 51
270.0
  0
ARC
  5
388E
330
3B0D
100
AcDbEntity
  8
Deckel unten
100
AcDbCircle
 10
400.5026002077317
 20
-464.8962639195967
 30
0.0
 40
2.0
100
AcDbArc
 50
90.0
 51
180.0
  0
ARC
  5
388F
330
3B0D
100
AcDbEntity
  8
Deckel unten
100
AcDbCircle
 10
481.5026002077317
 20
-464.8962639195967
 30
0.0
 40
2.0
100
AcDbArc
 50
0.0
 51
90.0
  0
ARC
  5
3890
330
3B0D
100
AcDbEntity
  8
Deckel unten
100
AcDbCircle
 10
481.5026002077317
 20
-465.8962639195967
 30
0.0
 40
2.0
100
AcDbArc
 50
270.0
 51
0.0
  0
ARC
  5
3892
330
3B0D
100
AcDbEntity
  8
Deckel unten
100
AcDbCircle
 10
400.5026002077317
 20
-435.8962639195967
 30
0.0
 40
2.0
100
AcDbArc
 50
180.0
 51
270.0
  0
ARC
  5
3893
330
3B0D
100
AcDbEntity
  8
Deckel unten
100
AcDbCircle
 10
400.5026002077317
 20
-434.8962639195967
 30
0.0
 40
2.0
100
AcDbArc
 50
90.0
 51
180.0
  0
ARC
  5
3895
330
3B0D
100
AcDbEntity
  8
Deckel unten
100
AcDbCircle
 10
481.5026002077317
 20
-434.8962639195967
 30
0.0
 40
2.0
100
AcDbArc
 50
0.0
 51
90.0
  0
ARC
  5
3896
330
3B0D
100
AcDbEntity
  8
Deckel unten
100
AcDbCircle
 10
481.5026002077317
 20
-435.8962639195967
 30
0.0
 40
2.0
100
AcDbArc
 50
270.0
 51
0.0
  0
LINE
  5
3897
330
3B0D
100
AcDbEntity
  8
Deckel unten
100
AcDbLine
 10
398.5026002077317
 20
-445.8962639195967
 30
0.0
 11
398.5026002077317
 21
-444.8962639195967
 31
0.0
  0
LINE
  5
3898
330
3B0D
100
AcDbEntity
  8
Deckel unten
100
AcDbLine
 10
483.5026002077317
 20
-444.8962639195967
 30
0.0
 11
483.5026002077317
 21
-445.8962639195967
 31
0.0
  0
ARC
  5
38B3
330
3B0D
100
AcDbEntity
  8
Batthalter oben
100
AcDbCircle
 10
141.9172918510661
 20
173.722331891035
 30
0.0
 40
2.005696273428486
100
AcDbArc
 50
265.6808001570158
 51
94.31919984298393
  0
LINE
  5
38B4
330
3B0D
100
AcDbEntity
  8
Batthalter oben
100
AcDbLine
 10
134.7662370886636
 20
45.42233189103524
 30
0.0
 11
134.7662370886637
 21
171.7223318910351
 31
0.0
  0
LINE
  5
38B5
330
3B0D
100
AcDbEntity
  8
Batthalter oben
100
AcDbLine
 10
134.7662370886637
 20
175.7223318910352
 30
0.0
 11
141.7662370886637
 21
175.7223318910351
 31
0.0
  0
LINE
  5
38B6
330
3B0D
100
AcDbEntity
  8
Batthalter oben
100
AcDbLine
 10
141.7662370886637
 20
171.7223318910349
 30
0.0
 11
134.7662370886637
 21
171.7223318910351
 31
0.0
  0
LINE
  5
38B7
330
3B0D
100
AcDbEntity
  8
Batthalter oben
100
AcDbLine
 10
389.7662370886636
 20
175.7223318910353
 30
0.0
 11
396.7662370886636
 21
175.7223318910351
 31
0.0
  0
LINE
  5
38BA
330
3B0D
100
AcDbEntity
  8
Batthalter oben
100
AcDbLine
 10
134.7662370886637
 20
302.022331891035
 30
0.0
 11
396.7662370886636
 21
302.022331891035
 31
0.0
  0
LINE
  5
38BB
330
3B0D
100
AcDbEntity
  8
Batthalter oben
100
AcDbLine
 10
135.7662370886636
 20
43.42233189103524
 30
0.0
 11
134.7662370886636
 21
43.42233189103524
 31
0.0
  0
LINE
  5
38BC
330
3B0D
100
AcDbEntity
  8
Batthalter oben
100
AcDbLine
 10
134.7662370886636
 20
43.42233189103524
 30
0.0
 11
134.7662370886636
 21
45.42233189103524
 31
0.0
  0
LINE
  5
38BD
330
3B0D
100
AcDbEntity
  8
Batthalter oben
100
AcDbLine
 10
395.7662370886638
 20
43.42233189103524
 30
0.0
 11
396.7662370886638
 21
43.42233189103524
 31
0.0
  0
LINE
  5
38BE
330
3B0D
100
AcDbEntity
  8
Batthalter oben
100
AcDbLine
 10
396.7662370886638
 20
43.42233189103524
 30
0.0
 11
396.7662370886638
 21
45.42233189103524
 31
0.0
  0
LINE
  5
38C1
330
3B0D
100
AcDbEntity
  8
Batthalter oben
100
AcDbLine
 10
423.6326851174004
 20
321.278185008743
 30
0.0
 11
423.6326851174004
 21
321.778185008743
 31
0.0
  0
LINE
  5
38C5
330
3B0D
100
AcDbEntity
  8
Batthalter oben
100
AcDbLine
 10
423.6326851174004
 20
27.09525408185243
 30
0.0
 11
421.6326851174004
 21
28.59525408185243
 31
0.0
  0
LINE
  5
38C7
330
3B0D
100
AcDbEntity
  8
Batthalter oben
100
AcDbLine
 10
421.6326851174004
 20
28.59525408185243
 30
0.0
 11
423.6326851174004
 21
30.09525408185243
 31
0.0
  0
LINE
  5
38C8
330
3B0D
100
AcDbEntity
  8
Batthalter oben
100
AcDbLine
 10
423.6326851174004
 20
318.278185008743
 30
0.0
 11
423.6326851174004
 21
30.09525408185243
 31
0.0
  0
LINE
  5
38CA
330
3B0D
100
AcDbEntity
  8
Batthalter oben
100
AcDbLine
 10
423.6326851174004
 20
24.59525408185243
 30
0.0
 11
423.6326851174004
 21
27.09525408185243
 31
0.0
  0
LINE
  5
38CD
330
3B0D
100
AcDbEntity
  8
Batthalter oben
100
AcDbLine
 10
423.6326851174004
 20
321.278185008743
 30
0.0
 11
421.6326851174004
 21
319.778185008743
 31
0.0
  0
LINE
  5
38CF
330
3B0D
100
AcDbEntity
  8
Batthalter oben
100
AcDbLine
 10
421.6326851174004
 20
319.778185008743
 30
0.0
 11
423.6326851174004
 21
318.278185008743
 31
0.0
  0
LINE
  5
38D8
330
3B0D
100
AcDbEntity
  8
Batthalter oben
100
AcDbLine
 10
395.7662370886638
 20
43.42233189103524
 30
0.0
 11
135.7662370886636
 21
43.42233189103524
 31
0.0
  0
LINE
  5
38D9
330
3B0D
100
AcDbEntity
  8
Batthalter oben
100
AcDbLine
 10
396.7662370886636
 20
171.722331891035
 30
0.0
 11
389.7662370886636
 21
171.7223318910351
 31
0.0
  0
ARC
  5
38DA
330
3B0D
100
AcDbEntity
  8
Batthalter oben
100
AcDbCircle
 10
413.6326851174004
 20
321.778185008743
 30
0.0
 40
10.0
100
AcDbArc
 50
0.0
 51
90.0
  0
ARC
  5
38DB
330
3B0D
100
AcDbEntity
  8
Batthalter oben
100
AcDbCircle
 10
413.6326851174004
 20
24.59525408185243
 30
0.0
 40
10.0
100
AcDbArc
 50
270.0
 51
0.0
  0
CIRCLE
  5
38DC
330
3B0D
100
AcDbEntity
  8
Batthalter oben
100
AcDbCircle
 10
413.5637901543333
 20
273.6903577127979
 30
0.0
 40
3.3
  0
CIRCLE
  5
38DD
330
3B0D
100
AcDbEntity
  8
Batthalter oben
100
AcDbCircle
 10
413.5472856146319
 20
73.74479774085177
 30
0.0
 40
3.3
  0
ARC
  5
38DE
330
3B0D
100
AcDbEntity
  8
Batthalter oben
100
AcDbCircle
 10
389.6151823262612
 20
173.7223318910352
 30
0.0
 40
2.005696273428486
100
AcDbArc
 50
85.6808001570158
 51
274.3191998429839
  0
LINE
  5
38DF
330
3B0D
100
AcDbEntity
  8
Batthalter oben
100
AcDbLine
 10
396.7662370886636
 20
302.022331891035
 30
0.0
 11
396.7662370886636
 21
175.7223318910351
 31
0.0
  0
LINE
  5
38E0
330
3B0D
100
AcDbEntity
  8
Batthalter oben
100
AcDbLine
 10
396.7662370886636
 20
171.722331891035
 30
0.0
 11
396.7662370886638
 21
45.42233189103524
 31
0.0
  0
LINE
  5
38E1
330
3B0D
100
AcDbEntity
  8
Batthalter oben
100
AcDbLine
 10
134.7662370886637
 20
175.7223318910352
 30
0.0
 11
134.7662370886637
 21
302.022331891035
 31
0.0
  0
CIRCLE
  5
38E4
330
3B0D
100
AcDbEntity
  8
Batthalter oben
100
AcDbCircle
 10
117.968684022994
 20
73.75430606927233
 30
0.0
 40
3.3
  0
LINE
  5
38E6
330
3B0D
100
AcDbEntity
  8
Batthalter oben
100
AcDbLine
 10
413.6326851174004
 20
331.778185008743
 30
0.0
 11
413.6326851174004
 21
331.778185008743
 31
0.0
  0
LINE
  5
38E7
330
3B0D
100
AcDbEntity
  8
Batthalter oben
100
AcDbLine
 10
413.6326851174004
 20
331.778185008743
 30
0.0
 11
-177.6788125317109
 21
331.7876933371637
 31
0.0
  0
LINE
  5
38E8
330
3B0D
100
AcDbEntity
  8
Batthalter oben
100
AcDbLine
 10
413.6326851174004
 20
14.59525408185243
 30
0.0
 11
-177.6788125317112
 21
14.60476241027311
 31
0.0
  0
LINE
  5
38E9
330
3B0D
100
AcDbEntity
  8
Deckel unten
100
AcDbLine
 10
180.5388899221579
 20
-272.2416424145711
 30
0.0
 11
476.5388899221579
 21
-272.2416424145711
 31
0.0
  0
LINE
  5
38EA
330
3B0D
100
AcDbEntity
  8
Deckel unten
100
AcDbLine
 10
448.5462896571124
 20
-656.3739749268309
 30
0.0
 11
152.5462896571124
 21
-656.3739749268309
 31
0.0
  0
CIRCLE
  5
38EB
330
3B0D
100
AcDbEntity
  8
Batterieboden
100
AcDbCircle
 10
413.968684022994
 20
73.75430606927233
 30
0.0
 40
3.3
  0
CIRCLE
  5
38EC
330
3B0D
100
AcDbEntity
  8
Batterieboden
100
AcDbCircle
 10
413.9851885626954
 20
273.6998660412185
 30
0.0
 40
3.3
  0
LINE
  5
38EF
330
3B0D
100
AcDbEntity
  8
Batterieboden
100
AcDbLine
 10
-157.5917450219183
 20
357.3965619654019
 30
0.0
 11
458.464120831438
 21
357.3827976841303
 31
0.0
  0
LINE
  5
38F0
330
3B0D
100
AcDbEntity
  8
Batterieboden
100
AcDbLine
 10
-180.5854999420147
 20
4.607503634094231
 30
0.0
 11
476.4649588583135
 21
4.607503634094231
 31
0.0
  0
LINE
  5
38F3
330
3B0D
100
AcDbEntity
  8
Deckel oben
100
AcDbLine
 10
-152.6564509496565
 20
656.8751697783545
 30
0.0
 11
448.3940078506718
 21
656.8622795009642
 31
0.0
  0
LINE
  5
38F4
330
3B0D
100
AcDbEntity
  8
Deckel oben
100
AcDbLine
 10
476.3922603153612
 20
296.8687260895692
 30
0.0
 11
-180.658198484967
 21
296.8687260895692
 31
0.0
  0
LINE
  5
38F5
330
3B0D
100
AcDbEntity
  8
Rueckwand
100
AcDbLine
 10
-192.8183782151634
 20
347.607440839913
 30
0.0
 11
488.4146443316896
 21
347.7365786179031
 31
0.0
  0
LINE
  5
3903
330
3B0D
100
AcDbEntity
  8
Rueckwand
100
AcDbLine
 10
-192.4577501932664
 20
-317.3061373953064
 30
0.0
 11
488.7361907801294
 21
-317.1770130673786
 31
0.0
  0
CIRCLE
  5
390F
330
3B0D
100
AcDbEntity
  8
Rueckwand
100
AcDbCircle
 10
14.84031205234115
 20
336.9113390094514
 30
0.0
 40
2.7
  0
CIRCLE
  5
3910
330
3B0D
100
AcDbEntity
  8
Rueckwand
100
AcDbCircle
 10
280.9040784158378
 20
336.8281200951566
 30
0.0
 40
2.7
  0
CIRCLE
  5
3911
330
3B0D
100
AcDbEntity
  8
Rueckwand
100
AcDbCircle
 10
14.99259385878176
 20
-306.3378085955538
 30
0.0
 40
2.7
  0
CIRCLE
  5
3912
330
3B0D
100
AcDbEntity
  8
Rueckwand
100
AcDbCircle
 10
280.9563560062627
 20
-306.3689724474906
 30
0.0
 40
2.7
  0
CIRCLE
  5
3913
330
3B0D
100
AcDbEntity
  8
Rueckwand
100
AcDbCircle
 10
280.976771087269
 20
14.59292517051534
 30
0.0
 40
2.7
  0
CIRCLE
  5
3914
330
3B0D
100
AcDbEntity
  8
Rueckwand
100
AcDbCircle
 10
14.91660274687955
 20
14.65403605868357
 30
0.0
 40
2.7
  0
CIRCLE
  5
3916
330
3B0D
100
AcDbEntity
  8
Batterieboden
100
AcDbCircle
 10
14.9130156393517
 20
14.60750363409423
 30
0.0
 40
2.7
  0
CIRCLE
  5
3917
330
3B0D
100
AcDbEntity
  8
Batterieboden
100
AcDbCircle
 10
280.9767723786601
 20
14.60750363409423
 30
0.0
 40
2.7
  0
CIRCLE
  5
3918
330
3B0D
100
AcDbEntity
  8
Deckel oben
100
AcDbCircle
 10
14.84031709639939
 20
306.8687260895692
 30
0.0
 40
2.7
  0
CIRCLE
  5
3919
330
3B0D
100
AcDbEntity
  8
Deckel oben
100
AcDbCircle
 10
280.9040738357078
 20
306.8687260895692
 30
0.0
 40
2.7
  0
CIRCLE
  5
391A
330
3B0D
100
AcDbEntity
  8
Deckel unten
100
AcDbCircle
 10
460.9563556421484
 20
-306.380421515436
 30
0.0
 40
2.7
  0
CIRCLE
  5
391B
330
3B0D
100
AcDbEntity
  8
Deckel unten
100
AcDbCircle
 10
280.9563560062627
 20
-306.3689724474906
 30
0.0
 40
2.7
  0
CIRCLE
  5
391C
330
3B0D
100
AcDbEntity
  8
Deckel unten
100
AcDbCircle
 10
14.99259385878176
 20
-306.3378085955538
 30
0.0
 40
2.7
  0
LINE
  5
391D
330
3B0D
100
AcDbEntity
  8
Haube
100
AcDbLine
 10
-224.590377271755
 20
365.1022655818761
 30
0.0
 11
520.4963350339234
 21
365.1022655818762
 31
0.0
  0
LINE
  5
391E
330
3B0D
100
AcDbEntity
  8
Haube
100
AcDbLine
 10
-222.9638907885219
 20
-334.8045233842328
 30
0.0
 11
520.4963350339234
 21
-334.8045233842328
 31
0.0
  0
LINE
  5
391F
330
3B0D
100
AcDbEntity
  8
Rueckwand
100
AcDbLine
 10
-445.3628581553075
 20
281.9571392252469
 30
0.0
 11
-445.3628581553075
 21
282.9571392252469
 31
0.0
  0
ARC
  5
3920
330
3B0D
100
AcDbEntity
  8
Rueckwand
100
AcDbCircle
 10
540.2752729427771
 20
273.7239337284851
 30
0.0
 40
2.0
100
AcDbArc
 50
180.0
 51
270.0
  0
LINE
  5
3921
330
3B0D
100
AcDbEntity
  8
Rueckwand
100
AcDbLine
 10
-355.3628581553075
 20
282.9571392252469
 30
0.0
 11
-355.3628581553075
 21
281.9571392252469
 31
0.0
  0
LINE
  5
3922
330
3B0D
100
AcDbEntity
  8
Rueckwand
100
AcDbLine
 10
653.27623470102
 20
276.8376355507713
 30
0.0
 11
739.27623470102
 21
276.8376355507713
 31
0.0
  0
LINE
  5
3923
330
3B0D
100
AcDbEntity
  8
Rueckwand
100
AcDbLine
 10
-332.8149995627111
 20
281.8534031448435
 30
0.0
 11
-332.8149995627111
 21
282.8534031448435
 31
0.0
  0
ARC
  5
3924
330
3B0D
100
AcDbEntity
  8
Rueckwand
100
AcDbCircle
 10
540.2752729427771
 20
274.7239337284851
 30
0.0
 40
2.0
100
AcDbArc
 50
90.0
 51
180.0
  0
LINE
  5
3925
330
3B0D
100
AcDbEntity
  8
Rueckwand
100
AcDbLine
 10
-242.8149995627111
 20
282.8534031448435
 30
0.0
 11
-242.8149995627111
 21
281.8534031448435
 31
0.0
  0
ARC
  5
3926
330
3B0D
100
AcDbEntity
  8
Rueckwand
100
AcDbCircle
 10
626.2752729427771
 20
274.7239337284851
 30
0.0
 40
2.0
100
AcDbArc
 50
0.0
 51
90.0
  0
LINE
  5
3927
330
3B0D
100
AcDbEntity
  8
Rueckwand
100
AcDbLine
 10
651.27623470102
 20
273.8376355507713
 30
0.0
 11
651.27623470102
 21
274.8376355507713
 31
0.0
  0
LINE
  5
3928
330
3B0D
100
AcDbEntity
  8
Rueckwand
100
AcDbLine
 10
653.27623470102
 20
271.8376355507713
 30
0.0
 11
739.27623470102
 21
271.8376355507713
 31
0.0
  0
ARC
  5
3929
330
3B0D
100
AcDbEntity
  8
Rueckwand
100
AcDbCircle
 10
-443.3628581553075
 20
272.9571392252469
 30
0.0
 40
2.0
100
AcDbArc
 50
90.0
 51
180.0
  0
ARC
  5
392A
330
3B0D
100
AcDbEntity
  8
Rueckwand
100
AcDbCircle
 10
626.2752729427771
 20
273.7239337284851
 30
0.0
 40
2.0
100
AcDbArc
 50
270.0
 51
0.0
  0
ARC
  5
392B
330
3B0D
100
AcDbEntity
  8
Rueckwand
100
AcDbCircle
 10
-443.3628581553075
 20
271.9571392252469
 30
0.0
 40
2.0
100
AcDbArc
 50
180.0
 51
270.0
  0
LINE
  5
392C
330
3B0D
100
AcDbEntity
  8
Rueckwand
100
AcDbLine
 10
741.27623470102
 20
274.8376355507713
 30
0.0
 11
741.27623470102
 21
273.8376355507713
 31
0.0
  0
ARC
  5
392D
330
3B0D
100
AcDbEntity
  8
Rueckwand
100
AcDbCircle
 10
-357.3628581553075
 20
271.9571392252469
 30
0.0
 40
2.0
100
AcDbArc
 50
270.0
 51
0.0
  0
LINE
  5
392E
330
3B0D
100
AcDbEntity
  8
Rueckwand
100
AcDbLine
 10
540.2752729427771
 20
276.7239337284851
 30
0.0
 11
626.2752729427771
 21
276.7239337284851
 31
0.0
  0
ARC
  5
392F
330
3B0D
100
AcDbEntity
  8
Rueckwand
100
AcDbCircle
 10
-357.3628581553075
 20
272.9571392252469
 30
0.0
 40
2.0
100
AcDbArc
 50
0.0
 51
90.0
  0
LINE
  5
3930
330
3B0D
100
AcDbEntity
  8
Rueckwand
100
AcDbLine
 10
538.2752729427771
 20
273.7239337284851
 30
0.0
 11
538.2752729427771
 21
274.7239337284851
 31
0.0
  0
ARC
  5
3931
330
3B0D
100
AcDbEntity
  8
Rueckwand
100
AcDbCircle
 10
-330.8149995627111
 20
272.8534031448435
 30
0.0
 40
2.0
100
AcDbArc
 50
90.0
 51
180.0
  0
LINE
  5
3932
330
3B0D
100
AcDbEntity
  8
Rueckwand
100
AcDbLine
 10
540.2752729427771
 20
271.7239337284851
 30
0.0
 11
626.2752729427771
 21
271.7239337284851
 31
0.0
  0
ARC
  5
3933
330
3B0D
100
AcDbEntity
  8
Rueckwand
100
AcDbCircle
 10
-330.8149995627111
 20
271.8534031448435
 30
0.0
 40
2.0
100
AcDbArc
 50
180.0
 51
270.0
  0
LINE
  5
3934
330
3B0D
100
AcDbEntity
  8
Rueckwand
100
AcDbLine
 10
628.2752729427771
 20
274.7239337284851
 30
0.0
 11
628.2752729427771
 21
273.7239337284851
 31
0.0
  0
ARC
  5
3935
330
3B0D
100
AcDbEntity
  8
Rueckwand
100
AcDbCircle
 10
-244.8149995627111
 20
271.8534031448435
 30
0.0
 40
2.0
100
AcDbArc
 50
270.0
 51
0.0
  0
ARC
  5
3936
330
3B0D
100
AcDbEntity
  8
Rueckwand
100
AcDbCircle
 10
-244.8149995627111
 20
272.8534031448435
 30
0.0
 40
2.0
100
AcDbArc
 50
0.0
 51
90.0
  0
LINE
  5
3937
330
3B0D
100
AcDbEntity
  8
Rueckwand
100
AcDbLine
 10
-443.3628581553075
 20
274.9571392252469
 30
0.0
 11
-357.3628581553075
 21
274.9571392252469
 31
0.0
  0
LINE
  5
3938
330
3B0D
100
AcDbEntity
  8
Rueckwand
100
AcDbLine
 10
-443.3628581553075
 20
269.9571392252469
 30
0.0
 11
-357.3628581553075
 21
269.9571392252469
 31
0.0
  0
LINE
  5
3939
330
3B0D
100
AcDbEntity
  8
Rueckwand
100
AcDbLine
 10
-330.8149995627111
 20
274.8534031448435
 30
0.0
 11
-244.8149995627111
 21
274.8534031448435
 31
0.0
  0
LINE
  5
393A
330
3B0D
100
AcDbEntity
  8
Rueckwand
100
AcDbLine
 10
-330.8149995627111
 20
269.8534031448435
 30
0.0
 11
-244.8149995627111
 21
269.8534031448435
 31
0.0
  0
LINE
  5
393B
330
3B0D
100
AcDbEntity
  8
Rueckwand
100
AcDbLine
 10
-445.3628581553075
 20
271.9571392252469
 30
0.0
 11
-445.3628581553075
 21
272.9571392252469
 31
0.0
  0
LINE
  5
393C
330
3B0D
100
AcDbEntity
  8
Rueckwand
100
AcDbLine
 10
-355.3628581553075
 20
272.9571392252469
 30
0.0
 11
-355.3628581553075
 21
271.9571392252469
 31
0.0
  0
LINE
  5
393D
330
3B0D
100
AcDbEntity
  8
Rueckwand
100
AcDbLine
 10
-332.8149995627111
 20
271.8534031448435
 30
0.0
 11
-332.8149995627111
 21
272.8534031448435
 31
0.0
  0
LINE
  5
393E
330
3B0D
100
AcDbEntity
  8
Rueckwand
100
AcDbLine
 10
-242.8149995627111
 20
272.8534031448435
 30
0.0
 11
-242.8149995627111
 21
271.8534031448435
 31
0.0
  0
LINE
  5
393F
330
3B0D
100
AcDbEntity
  8
Rueckwand
100
AcDbLine
 10
538.2752729427771
 20
283.7239337284851
 30
0.0
 11
538.2752729427771
 21
284.7239337284851
 31
0.0
  0
LINE
  5
3940
330
3B0D
100
AcDbEntity
  8
Rueckwand
100
AcDbLine
 10
628.2752729427771
 20
284.7239337284851
 30
0.0
 11
628.2752729427771
 21
283.7239337284851
 31
0.0
  0
ARC
  5
3941
330
3B0D
100
AcDbEntity
  8
Rueckwand
100
AcDbCircle
 10
540.2752729427771
 20
283.7239337284851
 30
0.0
 40
2.0
100
AcDbArc
 50
180.0
 51
270.0
  0
ARC
  5
3942
330
3B0D
100
AcDbEntity
  8
Rueckwand
100
AcDbCircle
 10
540.2752729427771
 20
284.7239337284851
 30
0.0
 40
2.0
100
AcDbArc
 50
90.0
 51
180.0
  0
ARC
  5
3943
330
3B0D
100
AcDbEntity
  8
Rueckwand
100
AcDbCircle
 10
626.2752729427771
 20
284.7239337284851
 30
0.0
 40
2.0
100
AcDbArc
 50
0.0
 51
90.0
  0
ARC
  5
3944
330
3B0D
100
AcDbEntity
  8
Rueckwand
100
AcDbCircle
 10
626.2752729427771
 20
283.7239337284851
 30
0.0
 40
2.0
100
AcDbArc
 50
270.0
 51
0.0
  0
LINE
  5
3945
330
3B0D
100
AcDbEntity
  8
Rueckwand
100
AcDbLine
 10
540.2752729427771
 20
286.7239337284851
 30
0.0
 11
626.2752729427771
 21
286.7239337284851
 31
0.0
  0
LINE
  5
3946
330
3B0D
100
AcDbEntity
  8
Rueckwand
100
AcDbLine
 10
540.2752729427771
 20
281.7239337284851
 30
0.0
 11
626.2752729427771
 21
281.7239337284851
 31
0.0
  0
LINE
  5
3947
330
3B0D
100
AcDbEntity
  8
Rueckwand
100
AcDbLine
 10
651.27623470102
 20
283.8376355507713
 30
0.0
 11
651.27623470102
 21
284.8376355507713
 31
0.0
  0
LINE
  5
3948
330
3B0D
100
AcDbEntity
  8
Rueckwand
100
AcDbLine
 10
741.27623470102
 20
284.8376355507713
 30
0.0
 11
741.27623470102
 21
283.8376355507713
 31
0.0
  0
ARC
  5
3949
330
3B0D
100
AcDbEntity
  8
Rueckwand
100
AcDbCircle
 10
-443.3628581553075
 20
282.9571392252469
 30
0.0
 40
2.0
100
AcDbArc
 50
90.0
 51
180.0
  0
ARC
  5
394A
330
3B0D
100
AcDbEntity
  8
Rueckwand
100
AcDbCircle
 10
-443.3628581553075
 20
281.9571392252469
 30
0.0
 40
2.0
100
AcDbArc
 50
180.0
 51
270.0
  0
ARC
  5
394B
330
3B0D
100
AcDbEntity
  8
Rueckwand
100
AcDbCircle
 10
-357.3628581553075
 20
281.9571392252469
 30
0.0
 40
2.0
100
AcDbArc
 50
270.0
 51
0.0
  0
ARC
  5
394C
330
3B0D
100
AcDbEntity
  8
Rueckwand
100
AcDbCircle
 10
-357.3628581553075
 20
282.9571392252469
 30
0.0
 40
2.0
100
AcDbArc
 50
0.0
 51
90.0
  0
ARC
  5
394D
330
3B0D
100
AcDbEntity
  8
Rueckwand
100
AcDbCircle
 10
-330.8149995627111
 20
282.8534031448435
 30
0.0
 40
2.0
100
AcDbArc
 50
90.0
 51
180.0
  0
ARC
  5
394E
330
3B0D
100
AcDbEntity
  8
Rueckwand
100
AcDbCircle
 10
-330.8149995627111
 20
281.8534031448435
 30
0.0
 40
2.0
100
AcDbArc
 50
180.0
 51
270.0
  0
ARC
  5
394F
330
3B0D
100
AcDbEntity
  8
Rueckwand
100
AcDbCircle
 10
-244.8149995627111
 20
281.8534031448435
 30
0.0
 40
2.0
100
AcDbArc
 50
270.0
 51
0.0
  0
ARC
  5
3950
330
3B0D
100
AcDbEntity
  8
Rueckwand
100
AcDbCircle
 10
-244.8149995627111
 20
282.8534031448435
 30
0.0
 40
2.0
100
AcDbArc
 50
0.0
 51
90.0
  0
ARC
  5
3951
330
3B0D
100
AcDbEntity
  8
Rueckwand
100
AcDbCircle
 10
653.27623470102
 20
283.8376355507713
 30
0.0
 40
2.0
100
AcDbArc
 50
180.0
 51
270.0
  0
ARC
  5
3952
330
3B0D
100
AcDbEntity
  8
Rueckwand
100
AcDbCircle
 10
653.27623470102
 20
284.8376355507713
 30
0.0
 40
2.0
100
AcDbArc
 50
90.0
 51
180.0
  0
ARC
  5
3953
330
3B0D
100
AcDbEntity
  8
Rueckwand
100
AcDbCircle
 10
739.27623470102
 20
284.8376355507713
 30
0.0
 40
2.0
100
AcDbArc
 50
0.0
 51
90.0
  0
ARC
  5
3954
330
3B0D
100
AcDbEntity
  8
Rueckwand
100
AcDbCircle
 10
739.27623470102
 20
283.8376355507713
 30
0.0
 40
2.0
100
AcDbArc
 50
270.0
 51
0.0
  0
LINE
  5
3955
330
3B0D
100
AcDbEntity
  8
Rueckwand
100
AcDbLine
 10
-443.3628581553075
 20
284.9571392252469
 30
0.0
 11
-357.3628581553075
 21
284.9571392252469
 31
0.0
  0
LINE
  5
3956
330
3B0D
100
AcDbEntity
  8
Rueckwand
100
AcDbLine
 10
653.27623470102
 20
286.8376355507713
 30
0.0
 11
739.27623470102
 21
286.8376355507713
 31
0.0
  0
LINE
  5
3957
330
3B0D
100
AcDbEntity
  8
Rueckwand
100
AcDbLine
 10
-443.3628581553075
 20
279.9571392252469
 30
0.0
 11
-357.3628581553075
 21
279.9571392252469
 31
0.0
  0
ARC
  5
3958
330
3B0D
100
AcDbEntity
  8
Rueckwand
100
AcDbCircle
 10
653.27623470102
 20
273.8376355507713
 30
0.0
 40
2.0
100
AcDbArc
 50
180.0
 51
270.0
  0
LINE
  5
3959
330
3B0D
100
AcDbEntity
  8
Rueckwand
100
AcDbLine
 10
653.27623470102
 20
281.8376355507713
 30
0.0
 11
739.27623470102
 21
281.8376355507713
 31
0.0
  0
ARC
  5
395A
330
3B0D
100
AcDbEntity
  8
Rueckwand
100
AcDbCircle
 10
653.27623470102
 20
274.8376355507713
 30
0.0
 40
2.0
100
AcDbArc
 50
90.0
 51
180.0
  0
LINE
  5
395B
330
3B0D
100
AcDbEntity
  8
Rueckwand
100
AcDbLine
 10
-330.8149995627111
 20
284.8534031448435
 30
0.0
 11
-244.8149995627111
 21
284.8534031448435
 31
0.0
  0
ARC
  5
395C
330
3B0D
100
AcDbEntity
  8
Rueckwand
100
AcDbCircle
 10
739.27623470102
 20
274.8376355507713
 30
0.0
 40
2.0
100
AcDbArc
 50
0.0
 51
90.0
  0
LINE
  5
395D
330
3B0D
100
AcDbEntity
  8
Rueckwand
100
AcDbLine
 10
-330.8149995627111
 20
279.8534031448435
 30
0.0
 11
-244.8149995627111
 21
279.8534031448435
 31
0.0
  0
ARC
  5
395E
330
3B0D
100
AcDbEntity
  8
Rueckwand
100
AcDbCircle
 10
739.27623470102
 20
273.8376355507713
 30
0.0
 40
2.0
100
AcDbArc
 50
270.0
 51
0.0
  0
LINE
  5
395F
330
3B0D
100
AcDbEntity
  8
Batterieboden
100
AcDbLine
 10
430.9426020308779
 20
89.92654550397421
 30
0.0
 11
430.9004440005438
 21
255.0687238222806
 31
0.0
  0
LINE
  5
3960
330
3B0D
100
AcDbEntity
  8
Batterieboden
100
AcDbLine
 10
480.8582859702097
 20
255.0687238222806
 30
0.0
 11
480.9004440005438
 21
89.92654550397421
 31
0.0
  0
CIRCLE
  5
396A
330
3B0D
100
AcDbEntity
  8
Rueckwand
100
AcDbCircle
 10
556.0277608137222
 20
-44.37306227211603
 30
0.0
 40
2.5
  0
CIRCLE
  5
396B
330
3B0D
100
AcDbEntity
  8
Rueckwand
100
AcDbCircle
 10
649.0277608137222
 20
-44.36707522156407
 30
0.0
 40
2.5
  0
CIRCLE
  5
396C
330
3B0D
100
AcDbEntity
  8
Rueckwand
100
AcDbCircle
 10
649.0277608137222
 20
-273.1670756956815
 30
0.0
 40
2.5
  0
CIRCLE
  5
396D
330
3B0D
100
AcDbEntity
  8
Rueckwand
100
AcDbCircle
 10
556.0277608137222
 20
-273.1730627462335
 30
0.0
 40
2.5
  0
LINE
  5
396E
330
3B0D
100
AcDbEntity
  8
Rueckwand
100
AcDbLine
 10
490.6020078202041
 20
-317.1766309665949
 30
0.0
 11
789.3803883294561
 21
-317.157396544359
 31
0.0
  0
LINE
  5
396F
330
3B0D
100
AcDbEntity
  8
Deckel unten
100
AcDbLine
 10
481.5026002077317
 20
-372.8962639195967
 30
0.0
 11
400.5026002077317
 21
-372.8962639195967
 31
0.0
  0
LINE
  5
3970
330
3B0D
100
AcDbEntity
  8
Deckel unten
100
AcDbLine
 10
400.5026002077317
 20
-377.8962639195967
 30
0.0
 11
481.5026002077317
 21
-377.8962639195967
 31
0.0
  0
LINE
  5
3971
330
3B0D
100
AcDbEntity
  8
Deckel unten
100
AcDbLine
 10
400.5026002077317
 20
-382.8962639195967
 30
0.0
 11
400.5026002077317
 21
-382.8962639195967
 31
0.0
  0
LINE
  5
3972
330
3B0D
100
AcDbEntity
  8
Deckel unten
100
AcDbLine
 10
400.5026002077317
 20
-382.8962639195967
 30
0.0
 11
481.5026002077317
 21
-382.8962639195967
 31
0.0
  0
LINE
  5
3973
330
3B0D
100
AcDbEntity
  8
Deckel unten
100
AcDbLine
 10
481.5026002077317
 20
-387.8962639195967
 30
0.0
 11
400.5026002077317
 21
-387.8962639195967
 31
0.0
  0
LINE
  5
3974
330
3B0D
100
AcDbEntity
  8
Deckel unten
100
AcDbLine
 10
400.5026002077317
 20
-392.8962639195967
 30
0.0
 11
481.5026002077317
 21
-392.8962639195967
 31
0.0
  0
LINE
  5
3975
330
3B0D
100
AcDbEntity
  8
Deckel unten
100
AcDbLine
 10
481.5026002077317
 20
-397.8962639195967
 30
0.0
 11
400.5026002077317
 21
-397.8962639195967
 31
0.0
  0
LINE
  5
3976
330
3B0D
100
AcDbEntity
  8
Deckel unten
100
AcDbLine
 10
400.5026002077317
 20
-402.8962639195967
 30
0.0
 11
481.5026002077317
 21
-402.8962639195967
 31
0.0
  0
LINE
  5
3977
330
3B0D
100
AcDbEntity
  8
Deckel unten
100
AcDbLine
 10
481.5026002077317
 20
-407.8962639195967
 30
0.0
 11
400.5026002077317
 21
-407.8962639195967
 31
0.0
  0
LINE
  5
3978
330
3B0D
100
AcDbEntity
  8
Deckel unten
100
AcDbLine
 10
400.5026002077317
 20
-412.8962639195967
 30
0.0
 11
481.5026002077317
 21
-412.8962639195967
 31
0.0
  0
LINE
  5
3979
330
3B0D
100
AcDbEntity
  8
Deckel unten
100
AcDbLine
 10
481.5026002077317
 20
-417.8962639195967
 30
0.0
 11
400.5026002077317
 21
-417.8962639195967
 31
0.0
  0
LINE
  5
397A
330
3B0D
100
AcDbEntity
  8
Deckel unten
100
AcDbLine
 10
400.5026002077317
 20
-422.8962639195967
 30
0.0
 11
481.5026002077317
 21
-422.8962639195967
 31
0.0
  0
LINE
  5
397B
330
3B0D
100
AcDbEntity
  8
Deckel unten
100
AcDbLine
 10
481.5026002077317
 20
-427.8962639195967
 30
0.0
 11
400.5026002077317
 21
-427.8962639195967
 31
0.0
  0
LINE
  5
397C
330
3B0D
100
AcDbEntity
  8
Deckel unten
100
AcDbLine
 10
400.5026002077317
 20
-432.8962639195967
 30
0.0
 11
481.5026002077317
 21
-432.8962639195967
 31
0.0
  0
LINE
  5
397D
330
3B0D
100
AcDbEntity
  8
Deckel unten
100
AcDbLine
 10
481.5026002077317
 20
-437.8962639195967
 30
0.0
 11
400.5026002077317
 21
-437.8962639195967
 31
0.0
  0
LINE
  5
397E
330
3B0D
100
AcDbEntity
  8
Deckel unten
100
AcDbLine
 10
400.5026002077317
 20
-442.8962639195967
 30
0.0
 11
481.5026002077317
 21
-442.8962639195967
 31
0.0
  0
LINE
  5
397F
330
3B0D
100
AcDbEntity
  8
Deckel unten
100
AcDbLine
 10
481.5026002077317
 20
-447.8962639195967
 30
0.0
 11
400.5026002077317
 21
-447.8962639195967
 31
0.0
  0
LINE
  5
3980
330
3B0D
100
AcDbEntity
  8
Deckel unten
100
AcDbLine
 10
400.5026002077317
 20
-452.8962639195967
 30
0.0
 11
481.5026002077317
 21
-452.8962639195967
 31
0.0
  0
LINE
  5
3981
330
3B0D
100
AcDbEntity
  8
Deckel unten
100
AcDbLine
 10
481.5026002077317
 20
-457.8962639195967
 30
0.0
 11
400.5026002077317
 21
-457.8962639195967
 31
0.0
  0
LINE
  5
3982
330
3B0D
100
AcDbEntity
  8
Deckel unten
100
AcDbLine
 10
400.5026002077317
 20
-462.8962639195967
 30
0.0
 11
481.5026002077317
 21
-462.8962639195967
 31
0.0
  0
LINE
  5
3983
330
3B0D
100
AcDbEntity
  8
Deckel unten
100
AcDbLine
 10
481.5026002077317
 20
-467.8962639195967
 30
0.0
 11
400.5026002077317
 21
-467.8962639195967
 31
0.0
  0
LINE
  5
3984
330
3B0D
100
AcDbEntity
  8
Deckel unten
100
AcDbLine
 10
400.5026002077317
 20
-472.8962639195967
 30
0.0
 11
481.5026002077317
 21
-472.8962639195967
 31
0.0
  0
LINE
  5
3985
330
3B0D
100
AcDbEntity
  8
Deckel unten
100
AcDbLine
 10
481.5026002077317
 20
-477.8962639195967
 30
0.0
 11
400.5026002077317
 21
-477.8962639195967
 31
0.0
  0
LINE
  5
3986
330
3B0D
100
AcDbEntity
  8
Deckel unten
100
AcDbLine
 10
400.5026002077317
 20
-482.8962639195967
 30
0.0
 11
481.5026002077317
 21
-482.8962639195967
 31
0.0
  0
LINE
  5
3987
330
3B0D
100
AcDbEntity
  8
Deckel unten
100
AcDbLine
 10
481.5026002077317
 20
-487.8962639195967
 30
0.0
 11
400.5026002077317
 21
-487.8962639195967
 31
0.0
  0
LINE
  5
3A3A
330
3B0D
100
AcDbEntity
  8
Haube
100
AcDbLine
 10
208.0103335531321
 20
-3.382131711476453
 30
0.0
 11
208.0113280676345
 21
-3.363968915044074
 31
0.0
  0
LINE
  5
3AED
330
3B0D
100
AcDbEntity
  8
Batterieboden
100
AcDbLine
 10
100.93618790476
 20
350.8142641418434
 30
0.0
 11
199.9361879047599
 21
350.8142641418434
 31
0.0
  0
LINE
  5
3AEE
330
3B0D
100
AcDbEntity
  8
Batterieboden
100
AcDbLine
 10
199.9361879047599
 20
331.8142641418434
 30
0.0
 11
100.9361879047599
 21
331.8142641418434
 31
0.0
  0
ENDSEC
  0
SECTION
  2
OBJECTS
  0
DICTIONARY
  5
3AFB
330
0
100
AcDbDictionary
281
     1
  3
ACAD_DETAILVIEWSTYLE
350
3BD6
  3
ACAD_GROUP
350
3AFC
  3
ACAD_LAYOUT
350
3B08
  3
ACAD_MATERIAL
350
3B31
  3
ACAD_MLEADERSTYLE
350
3BD5
  3
ACAD_MLINESTYLE
350
3B05
  3
ACAD_PLOTSETTINGS
350
3B07
  3
ACAD_PLOTSTYLENAME
350
3AFD
  3
ACAD_SCALELIST
350
3B35
  3
ACAD_SECTIONVIEWSTYLE
350
3BD7
  3
ACAD_TABLESTYLE
350
3BD4
  3
ACAD_VISUALSTYLE
350
3B18
  3
AcDbVariableDictionary
350
3BA2
  3
QCAD_OBJECTS
350
3B59
  0
SUN
  5
3B57
330
3B17
100
AcDbSun
 90
        1
290
     0
 63
     7
421
 16777215
 40
1.0
291
     1
 91
  2455826
 92
 54000000
292
     0
 70
     2
 71
   256
280
     1
  0
DICTIONARY
  5
3BD6
102
{ACAD_REACTORS
330
3AFB
102
}
330
3AFB
100
AcDbDictionary
281
     1
  0
DICTIONARY
  5
3AFC
102
{ACAD_REACTORS
330
3AFB
102
}
330
3AFB
100
AcDbDictionary
281
     1
  0
DICTIONARY
  5
3B08
102
{ACAD_REACTORS
330
3AFB
102
}
330
3AFB
100
AcDbDictionary
281
     1
  3
Layout1
350
3B0C
  3
Layout2
350
3B14
  3
Model
350
3B10
  0
DICTIONARY
  5
3B31
102
{ACAD_REACTORS
330
3AFB
102
}
330
3AFB
100
AcDbDictionary
281
     1
  3
ByBlock
350
3B33
  3
ByLayer
350
3B32
  3
Global
350
3B34
  0
DICTIONARY
  5
3BD5
102
{ACAD_REACTORS
330
3AFB
102
}
330
3AFB
100
AcDbDictionary
281
     1
  0
DICTIONARY
  5
3B05
102
{ACAD_REACTORS
330
3AFB
102
}
330
3AFB
100
AcDbDictionary
281
     1
  3
Standard
350
3B06
  0
DICTIONARY
  5
3B07
102
{ACAD_REACTORS
330
3AFB
102
}
330
3AFB
100
AcDbDictionary
281
     1
  0
ACDBDICTIONARYWDFLT
  5
3AFD
102
{ACAD_REACTORS
330
3AFB
102
}
330
3AFB
100
AcDbDictionary
281
     1
  3
Normal
350
3AFE
100
AcDbDictionaryWithDefault
340
3AFE
  0
DICTIONARY
  5
3B35
102
{ACAD_REACTORS
330
3AFB
102
}
330
3AFB
100
AcDbDictionary
281
     1
  3
A0
350
3B36
  3
A1
350
3B37
  3
A2
350
3B38
  3
A3
350
3B39
  3
A4
350
3B3A
  3
A5
350
3B3B
  3
A6
350
3B3C
  3
A7
350
3B3D
  3
A8
350
3B3E
  3
A9
350
3B3F
  3
B0
350
3B40
  3
B1
350
3B41
  3
B2
350
3B42
  3
B3
350
3B43
  3
B4
350
3B44
  3
B5
350
3B45
  3
B6
350
3B46
  3
B7
350
3B47
  3
B8
350
3B48
  3
B9
350
3B49
  3
C0
350
3B4A
  3
C1
350
3B4B
  3
C2
350
3B4C
  3
C3
350
3B4D
  3
C4
350
3B4E
  3
C5
350
3B4F
  3
C6
350
3B50
  3
C7
350
3B51
  3
C8
350
3B52
  3
C9
350
3B53
  3
D0
350
3B54
  3
D1
350
3B55
  3
D2
350
3B56
  0
DICTIONARY
  5
3BD7
102
{ACAD_REACTORS
330
3AFB
102
}
330
3AFB
100
AcDbDictionary
281
     1
  0
DICTIONARY
  5
3BD4
102
{ACAD_REACTORS
330
3AFB
102
}
330
3AFB
100
AcDbDictionary
281
     1
  0
DICTIONARY
  5
3B18
102
{ACAD_REACTORS
330
3AFB
102
}
330
3AFB
100
AcDbDictionary
281
     1
  3
2dWireframe
350
3B1D
  3
Basic
350
3B20
  3
Brighten
350
3B24
  3
ColorChange
350
3B28
  3
Conceptual
350
3B22
  3
Dim
350
3B23
  3
EdgeColorOff
350
3B2B
  3
Facepattern
350
3B27
  3
Flat
350
3B19
  3
FlatWithEdges
350
3B1A
  3
Gouraud
350
3B1B
  3
GouraudWithEdges
350
3B1C
  3
Hidden
350
3B1F
  3
JitterOff
350
3B29
  3
Linepattern
350
3B26
  3
OverhangOff
350
3B2A
  3
Realistic
350
3B21
  3
Shaded
350
3B30
  3
Shaded with edges
350
3B2F
  3
Shades of Gray
350
3B2C
  3
Sketchy
350
3B2D
  3
Thicken
350
3B25
  3
Wireframe
350
3B1E
  3
X-Ray
350
3B2E
  0
DICTIONARY
  5
3BA2
102
{ACAD_REACTORS
330
3AFB
102
}
330
3AFB
100
AcDbDictionary
281
     1
  3
CANNOSCALE
350
3BA3
  0
DICTIONARY
  5
3B59
102
{ACAD_REACTORS
330
3AFB
102
}
330
3AFB
100
AcDbDictionary
281
     1
  3
Grid/DisplayGrid00
350
3B5A
  3
Grid/DisplayGrid01
350
3B5B
  3
Grid/DisplayGrid02
350
3B5C
  3
Grid/DisplayGrid03
350
3B5D
  3
Grid/GridSpacingX00
350
3B5E
  3
Grid/GridSpacingX01
350
3B5F
  3
Grid/GridSpacingX02
350
3B60
  3
Grid/GridSpacingX03
350
3B61
  3
Grid/GridSpacingY00
350
3B62
  3
Grid/GridSpacingY01
350
3B63
  3
Grid/GridSpacingY02
350
3B64
  3
Grid/GridSpacingY03
350
3B65
  3
Grid/IsometricGrid00
350
3B66
  3
Grid/IsometricGrid01
350
3B67
  3
Grid/IsometricGrid02
350
3B68
  3
Grid/IsometricGrid03
350
3B69
  3
Grid/IsometricProjection00
350
3B6A
  3
Grid/IsometricProjection01
350
3B6B
  3
Grid/IsometricProjection02
350
3B6C
  3
Grid/IsometricProjection03
350
3B6D
  3
Grid/MetaGridSpacingX00
350
3B6E
  3
Grid/MetaGridSpacingX01
350
3B6F
  3
Grid/MetaGridSpacingX02
350
3B70
  3
Grid/MetaGridSpacingX03
350
3B71
  3
Grid/MetaGridSpacingY00
350
3B72
  3
Grid/MetaGridSpacingY01
350
3B73
  3
Grid/MetaGridSpacingY02
350
3B74
  3
Grid/MetaGridSpacingY03
350
3B75
  3
MultiPageSettings/Columns
350
3B76
  3
MultiPageSettings/GlueMarginsBottom
350
3B77
  3
MultiPageSettings/GlueMarginsLeft
350
3B78
  3
MultiPageSettings/GlueMarginsRight
350
3B79
  3
MultiPageSettings/GlueMarginsTop
350
3B7A
  3
MultiPageSettings/PrintCropMarks
350
3B7B
  3
MultiPageSettings/Rows
350
3B7C
  3
PageSettings/OffsetX
350
3B7D
  3
PageSettings/OffsetY
350
3B7E
  3
PageSettings/PageOrientation
350
3B7F
  3
PageSettings/PaperHeight
350
3B80
  3
PageSettings/PaperWidth
350
3B81
  3
PageSettings/Scale
350
3B82
  3
PageSettings/ShowPaperBorders
350
3B83
  3
UnitSettings/PaperUnit
350
3B84
  0
LAYOUT
  5
3B0C
102
{ACAD_REACTORS
330
3B08
102
}
330
3B08
100
AcDbPlotSettings
  1

  2
none_device
  4

  6

 40
0.0
 41
0.0
 42
0.0
 43
0.0
 44
0.0
 45
0.0
 46
0.0
 47
0.0
 48
0.0
 49
0.0
140
0.0
141
0.0
142
1.0
143
1.0
 70
   688
 72
     0
 73
     0
 74
     5
  7

 75
    16
 76
     0
 77
     2
 78
   300
147
1.0
148
0.0
149
0.0
100
AcDbLayout
  1
Layout1
 70
     1
 71
     1
 10
0.0
 20
0.0
 11
12.0
 21
9.0
 12
0.0
 22
0.0
 32
0.0
 14
1.000000000000000E+20
 24
1.000000000000000E+20
 34
1.000000000000000E+20
 15
-1.000000000000000E+20
 25
-1.000000000000000E+20
 35
-1.000000000000000E+20
146
0.0
 13
0.0
 23
0.0
 33
0.0
 16
1.0
 26
0.0
 36
0.0
 17
0.0
 27
1.0
 37
0.0
 76
     0
330
3B09
  0
LAYOUT
  5
3B14
102
{ACAD_REACTORS
330
3B08
102
}
330
3B08
100
AcDbPlotSettings
  1

  2
none_device
  4

  6

 40
0.0
 41
0.0
 42
0.0
 43
0.0
 44
0.0
 45
0.0
 46
0.0
 47
0.0
 48
0.0
 49
0.0
140
0.0
141
0.0
142
1.0
143
1.0
 70
   688
 72
     0
 73
     0
 74
     5
  7

 75
    16
 76
     0
 77
     2
 78
   300
147
1.0
148
0.0
149
0.0
100
AcDbLayout
  1
Layout2
 70
     1
 71
     2
 10
0.0
 20
0.0
 11
0.0
 21
0.0
 12
0.0
 22
0.0
 32
0.0
 14
0.0
 24
0.0
 34
0.0
 15
0.0
 25
0.0
 35
0.0
146
0.0
 13
0.0
 23
0.0
 33
0.0
 16
1.0
 26
0.0
 36
0.0
 17
0.0
 27
1.0
 37
0.0
 76
     0
330
3B11
  0
LAYOUT
  5
3B10
102
{ACAD_REACTORS
330
3B08
102
}
330
3B08
100
AcDbPlotSettings
  1

  2
none_device
  4
Letter_(8.50_x_11.00_Inches)
  6

 40
6.35
 41
6.35
 42
6.35000508
 43
6.35000508
 44
215.9
 45
279.4
 46
0.0
 47
0.0
 48
0.0
 49
0.0
140
0.0
141
0.0
142
1.0
143
1.0
 70
  1712
 72
     0
 73
     0
 74
     0
  7

 75
     0
 76
     0
 77
     2
 78
   300
147
1.0
148
0.0
149
0.0
100
AcDbLayout
  1
Model
 70
     1
 71
     0
 10
0.0
 20
0.0
 11
12.0
 21
9.0
 12
0.0
 22
0.0
 32
0.0
 14
1.000000000000000E+20
 24
1.000000000000000E+20
 34
1.000000000000000E+20
 15
-1.000000000000000E+20
 25
-1.000000000000000E+20
 35
-1.000000000000000E+20
146
0.0
 13
0.0
 23
0.0
 33
0.0
 16
1.0
 26
0.0
 36
0.0
 17
0.0
 27
1.0
 37
0.0
 76
     0
330
3B0D
331
3B17
  0
MATERIAL
  5
3B33
102
{ACAD_REACTORS
330
3B31
102
}
330
3B31
100
AcDbMaterial
  1
ByBlock
 72
     1
 94
      127
  0
MATERIAL
  5
3B32
102
{ACAD_REACTORS
330
3B31
102
}
330
3B31
100
AcDbMaterial
  1
ByLayer
 72
     1
 94
      127
  0
MATERIAL
  5
3B34
102
{ACAD_REACTORS
330
3B31
102
}
330
3B31
100
AcDbMaterial
  1
Global
 72
     1
 94
      127
  0
MLINESTYLE
  5
3B06
102
{ACAD_REACTORS
330
3B05
102
}
330
3B05
100
AcDbMlineStyle
  2
Standard
 70
     0
  3

 62
   256
 51
90.0
 52
90.0
 71
     2
 49
0.5
 62
   256
  6
BYLAYER
 49
-0.5
 62
   256
  6
BYLAYER
  0
ACDBPLACEHOLDER
  5
3AFE
102
{ACAD_REACTORS
330
3AFD
102
}
330
3AFD
  0
SCALE
  5
3B36
102
{ACAD_REACTORS
330
3B35
102
}
330
3B35
100
AcDbScale
 70
     0
300
1:1
140
1.0
141
1.0
290
     1
  0
SCALE
  5
3B37
102
{ACAD_REACTORS
330
3B35
102
}
330
3B35
100
AcDbScale
 70
     0
300
1:2
140
1.0
141
2.0
290
     0
  0
SCALE
  5
3B38
102
{ACAD_REACTORS
330
3B35
102
}
330
3B35
100
AcDbScale
 70
     0
300
1:4
140
1.0
141
4.0
290
     0
  0
SCALE
  5
3B39
102
{ACAD_REACTORS
330
3B35
102
}
330
3B35
100
AcDbScale
 70
     0
300
1:5
140
1.0
141
5.0
290
     0
  0
SCALE
  5
3B3A
102
{ACAD_REACTORS
330
3B35
102
}
330
3B35
100
AcDbScale
 70
     0
300
1:8
140
1.0
141
8.0
290
     0
  0
SCALE
  5
3B3B
102
{ACAD_REACTORS
330
3B35
102
}
330
3B35
100
AcDbScale
 70
     0
300
1:10
140
1.0
141
10.0
290
     0
  0
SCALE
  5
3B3C
102
{ACAD_REACTORS
330
3B35
102
}
330
3B35
100
AcDbScale
 70
     0
300
1:16
140
1.0
141
16.0
290
     0
  0
SCALE
  5
3B3D
102
{ACAD_REACTORS
330
3B35
102
}
330
3B35
100
AcDbScale
 70
     0
300
1:20
140
1.0
141
20.0
290
     0
  0
SCALE
  5
3B3E
102
{ACAD_REACTORS
330
3B35
102
}
330
3B35
100
AcDbScale
 70
     0
300
1:30
140
1.0
141
30.0
290
     0
  0
SCALE
  5
3B3F
102
{ACAD_REACTORS
330
3B35
102
}
330
3B35
100
AcDbScale
 70
     0
300
1:40
140
1.0
141
40.0
290
     0
  0
SCALE
  5
3B40
102
{ACAD_REACTORS
330
3B35
102
}
330
3B35
100
AcDbScale
 70
     0
300
1:50
140
1.0
141
50.0
290
     0
  0
SCALE
  5
3B41
102
{ACAD_REACTORS
330
3B35
102
}
330
3B35
100
AcDbScale
 70
     0
300
1:100
140
1.0
141
100.0
290
     0
  0
SCALE
  5
3B42
102
{ACAD_REACTORS
330
3B35
102
}
330
3B35
100
AcDbScale
 70
     0
300
2:1
140
2.0
141
1.0
290
     0
  0
SCALE
  5
3B43
102
{ACAD_REACTORS
330
3B35
102
}
330
3B35
100
AcDbScale
 70
     0
300
4:1
140
4.0
141
1.0
290
     0
  0
SCALE
  5
3B44
102
{ACAD_REACTORS
330
3B35
102
}
330
3B35
100
AcDbScale
 70
     0
300
8:1
140
8.0
141
1.0
290
     0
  0
SCALE
  5
3B45
102
{ACAD_REACTORS
330
3B35
102
}
330
3B35
100
AcDbScale
 70
     0
300
10:1
140
10.0
141
1.0
290
     0
  0
SCALE
  5
3B46
102
{ACAD_REACTORS
330
3B35
102
}
330
3B35
100
AcDbScale
 70
     0
300
100:1
140
100.0
141
1.0
290
     0
  0
SCALE
  5
3B47
102
{ACAD_REACTORS
330
3B35
102
}
330
3B35
100
AcDbScale
 70
     0
300
1/128" = 1'-0"
140
0.0078125
141
12.0
290
     0
  0
SCALE
  5
3B48
102
{ACAD_REACTORS
330
3B35
102
}
330
3B35
100
AcDbScale
 70
     0
300
1/64" = 1'-0"
140
0.015625
141
12.0
290
     0
  0
SCALE
  5
3B49
102
{ACAD_REACTORS
330
3B35
102
}
330
3B35
100
AcDbScale
 70
     0
300
1/32" = 1'-0"
140
0.03125
141
12.0
290
     0
  0
SCALE
  5
3B4A
102
{ACAD_REACTORS
330
3B35
102
}
330
3B35
100
AcDbScale
 70
     0
300
1/16" = 1'-0"
140
0.0625
141
12.0
290
     0
  0
SCALE
  5
3B4B
102
{ACAD_REACTORS
330
3B35
102
}
330
3B35
100
AcDbScale
 70
     0
300
3/32" = 1'-0"
140
0.09375
141
12.0
290
     0
  0
SCALE
  5
3B4C
102
{ACAD_REACTORS
330
3B35
102
}
330
3B35
100
AcDbScale
 70
     0
300
1/8" = 1'-0"
140
0.125
141
12.0
290
     0
  0
SCALE
  5
3B4D
102
{ACAD_REACTORS
330
3B35
102
}
330
3B35
100
AcDbScale
 70
     0
300
3/16" = 1'-0"
140
0.1875
141
12.0
290
     0
  0
SCALE
  5
3B4E
102
{ACAD_REACTORS
330
3B35
102
}
330
3B35
100
AcDbScale
 70
     0
300
1/4" = 1'-0"
140
0.25
141
12.0
290
     0
  0
SCALE
  5
3B4F
102
{ACAD_REACTORS
330
3B35
102
}
330
3B35
100
AcDbScale
 70
     0
300
3/8" = 1'-0"
140
0.375
141
12.0
290
     0
  0
SCALE
  5
3B50
102
{ACAD_REACTORS
330
3B35
102
}
330
3B35
100
AcDbScale
 70
     0
300
1/2" = 1'-0"
140
0.5
141
12.0
290
     0
  0
SCALE
  5
3B51
102
{ACAD_REACTORS
330
3B35
102
}
330
3B35
100
AcDbScale
 70
     0
300
3/4" = 1'-0"
140
0.75
141
12.0
290
     0
  0
SCALE
  5
3B52
102
{ACAD_REACTORS
330
3B35
102
}
330
3B35
100
AcDbScale
 70
     0
300
1" = 1'-0"
140
1.0
141
12.0
290
     0
  0
SCALE
  5
3B53
102
{ACAD_REACTORS
330
3B35
102
}
330
3B35
100
AcDbScale
 70
     0
300
1-1/2" = 1'-0"
140
1.5
141
12.0
290
     0
  0
SCALE
  5
3B54
102
{ACAD_REACTORS
330
3B35
102
}
330
3B35
100
AcDbScale
 70
     0
300
3" = 1'-0"
140
3.0
141
12.0
290
     0
  0
SCALE
  5
3B55
102
{ACAD_REACTORS
330
3B35
102
}
330
3B35
100
AcDbScale
 70
     0
300
6" = 1'-0"
140
6.0
141
12.0
290
     0
  0
SCALE
  5
3B56
102
{ACAD_REACTORS
330
3B35
102
}
330
3B35
100
AcDbScale
 70
     0
300
1'-0" = 1'-0"
140
12.0
141
12.0
290
     0
  0
VISUALSTYLE
  5
3B1D
102
{ACAD_REACTORS
330
3B18
102
}
102
{ACAD_XDICTIONARY
360
3BAC
102
}
330
3B18
100
AcDbVisualStyle
  2
2dWireframe
 70
     4
 71
     0
 72
     2
 73
     0
 90
        0
 40
0.6
 41
30.0
 62
     5
 63
     7
421
 16777215
 74
     1
 91
        4
 64
     7
 65
   257
 75
     1
175
     1
 42
1.0
 92
        0
 66
   257
 43
1.0
 76
     1
 77
     6
 78
     2
 67
     7
 79
     5
170
     0
171
     0
290
     0
174
     0
 93
        1
 44
0.0
173
     0
291
     0
 45
0.0
  0
VISUALSTYLE
  5
3B20
102
{ACAD_REACTORS
330
3B18
102
}
102
{ACAD_XDICTIONARY
360
3BB2
102
}
330
3B18
100
AcDbVisualStyle
  2
Basic
 70
     7
 71
     1
 72
     0
 73
     1
 90
        0
 40
0.6
 41
30.0
 62
     5
 63
     7
421
 16777215
 74
     0
 91
        4
 64
     7
 65
   257
 75
     1
175
     1
 42
1.0
 92
        8
 66
     7
 43
1.0
 76
     1
 77
     6
 78
     2
 67
     7
 79
     5
170
     0
171
     0
290
     0
174
     0
 93
        1
 44
0.0
173
     0
291
     1
 45
0.0
  0
VISUALSTYLE
  5
3B24
102
{ACAD_REACTORS
330
3B18
102
}
102
{ACAD_XDICTIONARY
360
3BBA
102
}
330
3B18
100
AcDbVisualStyle
  2
Brighten
 70
    12
 71
     2
 72
     2
 73
     0
 90
        0
 40
0.6
 41
30.0
 62
     5
 63
     7
421
 16777215
 74
     1
 91
        4
 64
     7
 65
   257
 75
     1
175
     1
 42
1.0
 92
        8
 66
     7
 43
1.0
 76
     1
 77
     6
 78
     2
 67
     7
 79
     5
170
     0
171
     0
290
     0
174
     0
 93
        1
 44
50.0
173
     0
291
     1
 45
0.0
  0
VISUALSTYLE
  5
3B28
102
{ACAD_REACTORS
330
3B18
102
}
102
{ACAD_XDICTIONARY
360
3BC2
102
}
330
3B18
100
AcDbVisualStyle
  2
ColorChange
 70
    16
 71
     2
 72
     2
 73
     3
 90
        0
 40
0.6
 41
30.0
 62
     5
 63
     8
421
  8421504
 74
     1
 91
        4
 64
     7
 65
   257
 75
     1
175
     1
 42
1.0
 92
        8
 66
     8
424
  8421504
 43
1.0
 76
     1
 77
     6
 78
     2
 67
     7
 79
     5
170
     0
171
     0
290
     0
174
     0
 93
        1
 44
0.0
173
     0
291
     1
 45
0.0
  0
VISUALSTYLE
  5
3B22
102
{ACAD_REACTORS
330
3B18
102
}
102
{ACAD_XDICTIONARY
360
3BB6
102
}
330
3B18
100
AcDbVisualStyle
  2
Conceptual
 70
     9
 71
     3
 72
     2
 73
     0
 90
        0
 40
0.6
 41
30.0
 62
     5
 63
     7
421
 16777215
 74
     2
 91
        2
 64
     7
 65
   257
 75
     1
175
     1
 42
179.0
 92
        8
 66
     7
 43
1.0
 76
     1
 77
     6
 78
     2
 67
     7
 79
     3
170
     0
171
     0
290
     0
174
     0
 93
        1
 44
0.0
173
     0
291
     0
 45
0.0
  0
VISUALSTYLE
  5
3B23
102
{ACAD_REACTORS
330
3B18
102
}
102
{ACAD_XDICTIONARY
360
3BB8
102
}
330
3B18
100
AcDbVisualStyle
  2
Dim
 70
    11
 71
     2
 72
     2
 73
     0
 90
        0
 40
0.6
 41
30.0
 62
     5
 63
     7
421
 16777215
 74
     1
 91
        4
 64
     7
 65
   257
 75
     1
175
     1
 42
1.0
 92
        8
 66
     7
 43
1.0
 76
     1
 77
     6
 78
     2
 67
     7
 79
     5
170
     0
171
     0
290
     0
174
     0
 93
        1
 44
-50.0
173
     0
291
     1
 45
0.0
  0
VISUALSTYLE
  5
3B2B
102
{ACAD_REACTORS
330
3B18
102
}
102
{ACAD_XDICTIONARY
360
3BC8
102
}
330
3B18
100
AcDbVisualStyle
  2
EdgeColorOff
 70
    22
 71
     2
 72
     2
 73
     0
 90
        0
 40
0.6
 41
30.0
 62
     5
 63
     7
421
 16777215
 74
     1
 91
        4
 64
     7
 65
   257
 75
     1
175
     1
 42
1.0
 92
        8
 66
     7
 43
1.0
 76
     1
 77
     6
 78
     2
 67
     7
 79
     5
170
     0
171
     0
290
     0
174
     0
 93
        1
 44
0.0
173
     0
291
     1
 45
0.0
  0
VISUALSTYLE
  5
3B27
102
{ACAD_REACTORS
330
3B18
102
}
102
{ACAD_XDICTIONARY
360
3BC0
102
}
330
3B18
100
AcDbVisualStyle
  2
Facepattern
 70
    15
 71
     2
 72
     2
 73
     0
 90
        0
 40
0.6
 41
30.0
 62
     5
 63
     7
421
 16777215
 74
     1
 91
        4
 64
     7
 65
   257
 75
     1
175
     1
 42
1.0
 92
        8
 66
     7
 43
1.0
 76
     1
 77
     6
 78
     2
 67
     7
 79
     5
170
     0
171
     0
290
     0
174
     0
 93
        1
 44
0.0
173
     0
291
     1
 45
0.0
  0
VISUALSTYLE
  5
3B19
102
{ACAD_REACTORS
330
3B18
102
}
102
{ACAD_XDICTIONARY
360
3BA4
102
}
330
3B18
100
AcDbVisualStyle
  2
Flat
 70
     0
 71
     2
 72
     1
 73
     1
 90
        2
 40
0.6
 41
30.0
 62
     5
 63
     7
421
 16777215
 74
     0
 91
        0
 64
     7
 65
   257
 75
     1
175
     1
 42
1.0
 92
        8
 66
     7
 43
1.0
 76
     1
 77
     6
 78
     2
 67
     7
 79
     5
170
     0
171
     0
290
     0
174
     0
 93
       13
 44
0.0
173
     0
291
     1
 45
0.0
  0
VISUALSTYLE
  5
3B1A
102
{ACAD_REACTORS
330
3B18
102
}
102
{ACAD_XDICTIONARY
360
3BA6
102
}
330
3B18
100
AcDbVisualStyle
  2
FlatWithEdges
 70
     1
 71
     2
 72
     1
 73
     1
 90
        2
 40
0.6
 41
30.0
 62
     5
 63
     7
421
 16777215
 74
     1
 91
        0
 64
     7
 65
   257
 75
     1
175
     1
 42
1.0
 92
        0
 66
   257
 43
1.0
 76
     1
 77
     6
 78
     2
 67
     7
 79
     5
170
     0
171
     0
290
     0
174
     0
 93
       13
 44
0.0
173
     0
291
     1
 45
0.0
  0
VISUALSTYLE
  5
3B1B
102
{ACAD_REACTORS
330
3B18
102
}
102
{ACAD_XDICTIONARY
360
3BA8
102
}
330
3B18
100
AcDbVisualStyle
  2
Gouraud
 70
     2
 71
     2
 72
     2
 73
     1
 90
        2
 40
0.6
 41
30.0
 62
     5
 63
     7
421
 16777215
 74
     0
 91
        0
 64
     7
 65
   257
 75
     1
175
     1
 42
1.0
 92
        0
 66
     7
 43
1.0
 76
     1
 77
     6
 78
     2
 67
     7
 79
     5
170
     0
171
     0
290
     0
174
     0
 93
       13
 44
0.0
173
     0
291
     1
 45
0.0
  0
VISUALSTYLE
  5
3B1C
102
{ACAD_REACTORS
330
3B18
102
}
102
{ACAD_XDICTIONARY
360
3BAA
102
}
330
3B18
100
AcDbVisualStyle
  2
GouraudWithEdges
 70
     3
 71
     2
 72
     2
 73
     1
 90
        2
 40
0.6
 41
30.0
 62
     5
 63
     7
421
 16777215
 74
     1
 91
        0
 64
     7
 65
   257
 75
     1
175
     1
 42
1.0
 92
        0
 66
   257
 43
1.0
 76
     1
 77
     6
 78
     2
 67
     7
 79
     5
170
     0
171
     0
290
     0
174
     0
 93
       13
 44
0.0
173
     0
291
     1
 45
0.0
  0
VISUALSTYLE
  5
3B1F
102
{ACAD_REACTORS
330
3B18
102
}
102
{ACAD_XDICTIONARY
360
3BB0
102
}
330
3B18
100
AcDbVisualStyle
  2
Hidden
 70
     6
 71
     1
 72
     2
 73
     2
 90
        0
 40
0.6
 41
30.0
 62
     5
 63
     7
421
 16777215
 74
     2
 91
        2
 64
     7
 65
   257
 75
     2
175
     1
 42
40.0
 92
        0
 66
   257
 43
1.0
 76
     1
 77
     6
 78
     2
 67
     7
 79
     3
170
     0
171
     0
290
     0
174
     0
 93
        1
 44
0.0
173
     0
291
     0
 45
0.0
  0
VISUALSTYLE
  5
3B29
102
{ACAD_REACTORS
330
3B18
102
}
102
{ACAD_XDICTIONARY
360
3BC4
102
}
330
3B18
100
AcDbVisualStyle
  2
JitterOff
 70
    20
 71
     2
 72
     2
 73
     0
 90
        0
 40
0.6
 41
30.0
 62
     5
 63
     7
421
 16777215
 74
     1
 91
        4
 64
     7
 65
   257
 75
     1
175
     1
 42
1.0
 92
       10
 66
     7
 43
1.0
 76
     1
 77
     6
 78
     2
 67
     7
 79
     5
170
     0
171
     0
290
     0
174
     0
 93
        1
 44
0.0
173
     0
291
     1
 45
0.0
  0
VISUALSTYLE
  5
3B26
102
{ACAD_REACTORS
330
3B18
102
}
102
{ACAD_XDICTIONARY
360
3BBE
102
}
330
3B18
100
AcDbVisualStyle
  2
Linepattern
 70
    14
 71
     2
 72
     2
 73
     0
 90
        0
 40
0.6
 41
30.0
 62
     5
 63
     7
421
 16777215
 74
     1
 91
        4
 64
     7
 65
   257
 75
     7
175
     7
 42
1.0
 92
        8
 66
     7
 43
1.0
 76
     1
 77
     6
 78
     2
 67
     7
 79
     5
170
     0
171
     0
290
     0
174
     0
 93
        1
 44
0.0
173
     0
291
     1
 45
0.0
  0
VISUALSTYLE
  5
3B2A
102
{ACAD_REACTORS
330
3B18
102
}
102
{ACAD_XDICTIONARY
360
3BC6
102
}
330
3B18
100
AcDbVisualStyle
  2
OverhangOff
 70
    21
 71
     2
 72
     2
 73
     0
 90
        0
 40
0.6
 41
30.0
 62
     5
 63
     7
421
 16777215
 74
     1
 91
        4
 64
     7
 65
   257
 75
     1
175
     1
 42
1.0
 92
        9
 66
     7
 43
1.0
 76
     1
 77
     6
 78
     2
 67
     7
 79
     5
170
     0
171
     0
290
     0
174
     0
 93
        1
 44
0.0
173
     0
291
     1
 45
0.0
  0
VISUALSTYLE
  5
3B21
102
{ACAD_REACTORS
330
3B18
102
}
102
{ACAD_XDICTIONARY
360
3BB4
102
}
330
3B18
100
AcDbVisualStyle
  2
Realistic
 70
     8
 71
     2
 72
     3
 73
     0
 90
        2
 40
0.6
 41
30.0
 62
     5
 63
     7
421
 16777215
 74
     0
 91
        0
 64
     7
 65
   257
 75
     1
175
     1
 42
1.0
 92
        8
 66
   257
 43
1.0
 76
     1
 77
     6
 78
     2
 67
     7
 79
     3
170
     0
171
     0
290
     0
174
     0
 93
       13
 44
0.0
173
     0
291
     0
 45
0.0
  0
VISUALSTYLE
  5
3B30
102
{ACAD_REACTORS
330
3B18
102
}
102
{ACAD_XDICTIONARY
360
3BD2
102
}
330
3B18
100
AcDbVisualStyle
  2
Shaded
 70
    27
 71
     2
 72
     2
 73
     1
 90
        2
 40
0.6
 41
30.0
 62
     5
 63
     7
421
 16777215
 74
     0
 91
        4
 64
     7
 65
   257
 75
     1
175
     1
 42
1.0
 92
        8
 66
   257
 43
1.0
 76
     1
 77
     6
 78
     2
 67
     8
425
  7895160
 79
     3
170
     0
171
     0
290
     0
174
     0
 93
        5
 44
0.0
173
     0
291
     0
 45
0.0
  0
VISUALSTYLE
  5
3B2F
102
{ACAD_REACTORS
330
3B18
102
}
102
{ACAD_XDICTIONARY
360
3BD0
102
}
330
3B18
100
AcDbVisualStyle
  2
Shaded with edges
 70
    26
 71
     2
 72
     2
 73
     1
 90
        2
 40
0.6
 41
30.0
 62
     5
 63
     7
421
 16777215
 74
     1
 91
       10
 64
     7
 65
   257
 75
     2
175
     1
 42
1.0
 92
        8
 66
   257
 43
1.0
 76
     1
 77
     6
 78
     2
 67
     7
 79
     3
170
     0
171
     0
290
     0
174
     0
 93
        5
 44
0.0
173
     0
291
     0
 45
0.0
  0
VISUALSTYLE
  5
3B2C
102
{ACAD_REACTORS
330
3B18
102
}
102
{ACAD_XDICTIONARY
360
3BCA
102
}
330
3B18
100
AcDbVisualStyle
  2
Shades of Gray
 70
    23
 71
     2
 72
     2
 73
     3
 90
        0
 40
0.6
 41
30.0
 62
     5
 63
     7
421
 16777215
 74
     2
 91
        2
 64
     7
 65
     7
 75
     1
175
     1
 42
40.0
 92
        8
 66
     7
 43
1.0
 76
     1
 77
     6
 78
     2
 67
     7
 79
     3
170
     0
171
     0
290
     0
174
     0
 93
        1
 44
0.0
173
     0
291
     0
 45
0.0
  0
VISUALSTYLE
  5
3B2D
102
{ACAD_REACTORS
330
3B18
102
}
102
{ACAD_XDICTIONARY
360
3BCC
102
}
330
3B18
100
AcDbVisualStyle
  2
Sketchy
 70
    24
 71
     1
 72
     2
 73
     2
 90
        0
 40
0.6
 41
30.0
 62
     5
 63
     7
421
 16777215
 74
     2
 91
        2
 64
     7
 65
     7
 75
     1
175
     1
 42
40.0
 92
       11
 66
     7
 43
1.0
 76
     1
 77
     6
 78
     2
 67
     7
 79
     6
170
     0
171
     0
290
     0
174
     0
 93
        1
 44
0.0
173
     0
291
     0
 45
0.0
  0
VISUALSTYLE
  5
3B25
102
{ACAD_REACTORS
330
3B18
102
}
102
{ACAD_XDICTIONARY
360
3BBC
102
}
330
3B18
100
AcDbVisualStyle
  2
Thicken
 70
    13
 71
     2
 72
     2
 73
     0
 90
        0
 40
0.6
 41
30.0
 62
     5
 63
     7
421
 16777215
 74
     1
 91
        4
 64
     7
 65
   257
 75
     1
175
     1
 42
1.0
 92
       12
 66
     7
 43
1.0
 76
     1
 77
     6
 78
     2
 67
     7
 79
     5
170
     0
171
     0
290
     0
174
     0
 93
        1
 44
0.0
173
     0
291
     1
 45
0.0
  0
VISUALSTYLE
  5
3B1E
102
{ACAD_REACTORS
330
3B18
102
}
102
{ACAD_XDICTIONARY
360
3BAE
102
}
330
3B18
100
AcDbVisualStyle
  2
Wireframe
 70
     5
 71
     0
 72
     2
 73
     0
 90
        0
 40
0.6
 41
30.0
 62
     5
 63
     7
421
 16777215
 74
     1
 91
        4
 64
     7
 65
   257
 75
     1
175
     1
 42
1.0
 92
        0
 66
   257
 43
1.0
 76
     1
 77
     6
 78
     2
 67
     7
 79
     3
170
     0
171
     0
290
     0
174
     0
 93
        1
 44
0.0
173
     0
291
     0
 45
0.0
  0
VISUALSTYLE
  5
3B2E
102
{ACAD_REACTORS
330
3B18
102
}
102
{ACAD_XDICTIONARY
360
3BCE
102
}
330
3B18
100
AcDbVisualStyle
  2
X-Ray
 70
    25
 71
     2
 72
     2
 73
     1
 90
        1
 40
0.5
 41
30.0
 62
     5
 63
     7
421
 16777215
 74
     1
 91
        0
 64
     7
 65
   257
 75
     1
175
     1
 42
1.0
 92
        8
 66
     7
 43
1.0
 76
     1
 77
     6
 78
     2
 67
     7
 79
     3
170
     0
171
     0
290
     0
174
     0
 93
       13
 44
0.0
173
     0
291
     0
 45
0.0
  0
DICTIONARYVAR
  5
3BA3
102
{ACAD_REACTORS
330
3BA2
102
}
330
3BA2
100
DictionaryVariables
280
     0
  1
1:1
  0
XRECORD
  5
3B5A
102
{ACAD_REACTORS
330
3B59
102
}
330
3B59
100
AcDbXrecord
280
     1
290
     0
  0
XRECORD
  5
3B5B
102
{ACAD_REACTORS
330
3B59
102
}
330
3B59
100
AcDbXrecord
280
     1
290
     1
  0
XRECORD
  5
3B5C
102
{ACAD_REACTORS
330
3B59
102
}
330
3B59
100
AcDbXrecord
280
     1
290
     1
  0
XRECORD
  5
3B5D
102
{ACAD_REACTORS
330
3B59
102
}
330
3B59
100
AcDbXrecord
280
     1
290
     1
  0
XRECORD
  5
3B5E
102
{ACAD_REACTORS
330
3B59
102
}
330
3B59
100
AcDbXrecord
280
     1
1000
auto
  0
XRECORD
  5
3B5F
102
{ACAD_REACTORS
330
3B59
102
}
330
3B59
100
AcDbXrecord
280
     1
1000
auto
  0
XRECORD
  5
3B60
102
{ACAD_REACTORS
330
3B59
102
}
330
3B59
100
AcDbXrecord
280
     1
1000
auto
  0
XRECORD
  5
3B61
102
{ACAD_REACTORS
330
3B59
102
}
330
3B59
100
AcDbXrecord
280
     1
1000
auto
  0
XRECORD
  5
3B62
102
{ACAD_REACTORS
330
3B59
102
}
330
3B59
100
AcDbXrecord
280
     1
1000
auto
  0
XRECORD
  5
3B63
102
{ACAD_REACTORS
330
3B59
102
}
330
3B59
100
AcDbXrecord
280
     1
1000
auto
  0
XRECORD
  5
3B64
102
{ACAD_REACTORS
330
3B59
102
}
330
3B59
100
AcDbXrecord
280
     1
1000
auto
  0
XRECORD
  5
3B65
102
{ACAD_REACTORS
330
3B59
102
}
330
3B59
100
AcDbXrecord
280
     1
1000
auto
  0
XRECORD
  5
3B66
102
{ACAD_REACTORS
330
3B59
102
}
330
3B59
100
AcDbXrecord
280
     1
290
     0
  0
XRECORD
  5
3B67
102
{ACAD_REACTORS
330
3B59
102
}
330
3B59
100
AcDbXrecord
280
     1
290
     0
  0
XRECORD
  5
3B68
102
{ACAD_REACTORS
330
3B59
102
}
330
3B59
100
AcDbXrecord
280
     1
290
     0
  0
XRECORD
  5
3B69
102
{ACAD_REACTORS
330
3B59
102
}
330
3B59
100
AcDbXrecord
280
     1
290
     0
  0
XRECORD
  5
3B6A
102
{ACAD_REACTORS
330
3B59
102
}
330
3B59
100
AcDbXrecord
280
     1
 90
        0
  0
XRECORD
  5
3B6B
102
{ACAD_REACTORS
330
3B59
102
}
330
3B59
100
AcDbXrecord
280
     1
 90
        0
  0
XRECORD
  5
3B6C
102
{ACAD_REACTORS
330
3B59
102
}
330
3B59
100
AcDbXrecord
280
     1
 90
        0
  0
XRECORD
  5
3B6D
102
{ACAD_REACTORS
330
3B59
102
}
330
3B59
100
AcDbXrecord
280
     1
 90
        0
  0
XRECORD
  5
3B6E
102
{ACAD_REACTORS
330
3B59
102
}
330
3B59
100
AcDbXrecord
280
     1
1000
auto
  0
XRECORD
  5
3B6F
102
{ACAD_REACTORS
330
3B59
102
}
330
3B59
100
AcDbXrecord
280
     1
1000
auto
  0
XRECORD
  5
3B70
102
{ACAD_REACTORS
330
3B59
102
}
330
3B59
100
AcDbXrecord
280
     1
1000
auto
  0
XRECORD
  5
3B71
102
{ACAD_REACTORS
330
3B59
102
}
330
3B59
100
AcDbXrecord
280
     1
1000
auto
  0
XRECORD
  5
3B72
102
{ACAD_REACTORS
330
3B59
102
}
330
3B59
100
AcDbXrecord
280
     1
1000
auto
  0
XRECORD
  5
3B73
102
{ACAD_REACTORS
330
3B59
102
}
330
3B59
100
AcDbXrecord
280
     1
1000
auto
  0
XRECORD
  5
3B74
102
{ACAD_REACTORS
330
3B59
102
}
330
3B59
100
AcDbXrecord
280
     1
1000
auto
  0
XRECORD
  5
3B75
102
{ACAD_REACTORS
330
3B59
102
}
330
3B59
100
AcDbXrecord
280
     1
1000
auto
  0
XRECORD
  5
3B76
102
{ACAD_REACTORS
330
3B59
102
}
330
3B59
100
AcDbXrecord
280
     1
 90
        1
  0
XRECORD
  5
3B77
102
{ACAD_REACTORS
330
3B59
102
}
330
3B59
100
AcDbXrecord
280
     1
 40
10.0
  0
XRECORD
  5
3B78
102
{ACAD_REACTORS
330
3B59
102
}
330
3B59
100
AcDbXrecord
280
     1
 40
10.0
  0
XRECORD
  5
3B79
102
{ACAD_REACTORS
330
3B59
102
}
330
3B59
100
AcDbXrecord
280
     1
 40
10.0
  0
XRECORD
  5
3B7A
102
{ACAD_REACTORS
330
3B59
102
}
330
3B59
100
AcDbXrecord
280
     1
 40
10.0
  0
XRECORD
  5
3B7B
102
{ACAD_REACTORS
330
3B59
102
}
330
3B59
100
AcDbXrecord
280
     1
290
     0
  0
XRECORD
  5
3B7C
102
{ACAD_REACTORS
330
3B59
102
}
330
3B59
100
AcDbXrecord
280
     1
 90
        1
  0
XRECORD
  5
3B7D
102
{ACAD_REACTORS
330
3B59
102
}
330
3B59
100
AcDbXrecord
280
     1
 40
0.0
  0
XRECORD
  5
3B7E
102
{ACAD_REACTORS
330
3B59
102
}
330
3B59
100
AcDbXrecord
280
     1
 40
0.0
  0
XRECORD
  5
3B7F
102
{ACAD_REACTORS
330
3B59
102
}
330
3B59
100
AcDbXrecord
280
     1
1000
Portrait
  0
XRECORD
  5
3B80
102
{ACAD_REACTORS
330
3B59
102
}
330
3B59
100
AcDbXrecord
280
     1
 40
297.0
  0
XRECORD
  5
3B81
102
{ACAD_REACTORS
330
3B59
102
}
330
3B59
100
AcDbXrecord
280
     1
 40
210.0
  0
XRECORD
  5
3B82
102
{ACAD_REACTORS
330
3B59
102
}
330
3B59
100
AcDbXrecord
280
     1
1000
1:1
  0
XRECORD
  5
3B83
102
{ACAD_REACTORS
330
3B59
102
}
330
3B59
100
AcDbXrecord
280
     1
290
     1
  0
XRECORD
  5
3B84
102
{ACAD_REACTORS
330
3B59
102
}
330
3B59
100
AcDbXrecord
280
     1
 90
        4
  0
DICTIONARY
  5
3BAC
330
3B1D
100
AcDbDictionary
280
     1
281
     1
  3
ACAD_XREC_ROUNDTRIP
360
3BAD
  0
DICTIONARY
  5
3BB2
330
3B20
100
AcDbDictionary
280
     1
281
     1
  3
ACAD_XREC_ROUNDTRIP
360
3BB3
  0
DICTIONARY
  5
3BBA
330
3B24
100
AcDbDictionary
280
     1
281
     1
  3
ACAD_XREC_ROUNDTRIP
360
3BBB
  0
DICTIONARY
  5
3BC2
330
3B28
100
AcDbDictionary
280
     1
281
     1
  3
ACAD_XREC_ROUNDTRIP
360
3BC3
  0
DICTIONARY
  5
3BB6
330
3B22
100
AcDbDictionary
280
     1
281
     1
  3
ACAD_XREC_ROUNDTRIP
360
3BB7
  0
DICTIONARY
  5
3BB8
330
3B23
100
AcDbDictionary
280
     1
281
     1
  3
ACAD_XREC_ROUNDTRIP
360
3BB9
  0
DICTIONARY
  5
3BC8
330
3B2B
100
AcDbDictionary
280
     1
281
     1
  3
ACAD_XREC_ROUNDTRIP
360
3BC9
  0
DICTIONARY
  5
3BC0
330
3B27
100
AcDbDictionary
280
     1
281
     1
  3
ACAD_XREC_ROUNDTRIP
360
3BC1
  0
DICTIONARY
  5
3BA4
330
3B19
100
AcDbDictionary
280
     1
281
     1
  3
ACAD_XREC_ROUNDTRIP
360
3BA5
  0
DICTIONARY
  5
3BA6
330
3B1A
100
AcDbDictionary
280
     1
281
     1
  3
ACAD_XREC_ROUNDTRIP
360
3BA7
  0
DICTIONARY
  5
3BA8
330
3B1B
100
AcDbDictionary
280
     1
281
     1
  3
ACAD_XREC_ROUNDTRIP
360
3BA9
  0
DICTIONARY
  5
3BAA
330
3B1C
100
AcDbDictionary
280
     1
281
     1
  3
ACAD_XREC_ROUNDTRIP
360
3BAB
  0
DICTIONARY
  5
3BB0
330
3B1F
100
AcDbDictionary
280
     1
281
     1
  3
ACAD_XREC_ROUNDTRIP
360
3BB1
  0
DICTIONARY
  5
3BC4
330
3B29
100
AcDbDictionary
280
     1
281
     1
  3
ACAD_XREC_ROUNDTRIP
360
3BC5
  0
DICTIONARY
  5
3BBE
330
3B26
100
AcDbDictionary
280
     1
281
     1
  3
ACAD_XREC_ROUNDTRIP
360
3BBF
  0
DICTIONARY
  5
3BC6
330
3B2A
100
AcDbDictionary
280
     1
281
     1
  3
ACAD_XREC_ROUNDTRIP
360
3BC7
  0
DICTIONARY
  5
3BB4
330
3B21
100
AcDbDictionary
280
     1
281
     1
  3
ACAD_XREC_ROUNDTRIP
360
3BB5
  0
DICTIONARY
  5
3BD2
330
3B30
100
AcDbDictionary
280
     1
281
     1
  3
ACAD_XREC_ROUNDTRIP
360
3BD3
  0
DICTIONARY
  5
3BD0
330
3B2F
100
AcDbDictionary
280
     1
281
     1
  3
ACAD_XREC_ROUNDTRIP
360
3BD1
  0
DICTIONARY
  5
3BCA
330
3B2C
100
AcDbDictionary
280
     1
281
     1
  3
ACAD_XREC_ROUNDTRIP
360
3BCB
  0
DICTIONARY
  5
3BCC
330
3B2D
100
AcDbDictionary
280
     1
281
     1
  3
ACAD_XREC_ROUNDTRIP
360
3BCD
  0
DICTIONARY
  5
3BBC
330
3B25
100
AcDbDictionary
280
     1
281
     1
  3
ACAD_XREC_ROUNDTRIP
360
3BBD
  0
DICTIONARY
  5
3BAE
330
3B1E
100
AcDbDictionary
280
     1
281
     1
  3
ACAD_XREC_ROUNDTRIP
360
3BAF
  0
DICTIONARY
  5
3BCE
330
3B2E
100
AcDbDictionary
280
     1
281
     1
  3
ACAD_XREC_ROUNDTRIP
360
3BCF
  0
XRECORD
  5
3BAD
102
{ACAD_REACTORS
330
3BAC
102
}
330
3BAC
100
AcDbXrecord
280
     1
102
RTVSPropertyOp0
 70
     1
102
RTVSPropertyOp1
 70
     1
102
RTVSPropertyOp2
 70
     1
102
RTVSPropertyOp3
 70
     1
102
RTVSPropertyOp4
 70
     1
102
RTVSPropertyOp5
 70
     1
102
RTVSPropertyOp6
 70
     1
102
RTVSPropertyOp7
 70
     1
102
RTVSPropertyOp8
 70
     1
102
RTVSPropertyOp9
 70
     1
102
RTVSPropertyOp10
 70
     1
102
RTVSPropertyOp11
 70
     1
102
RTVSPropertyOp12
 70
     1
102
RTVSPropertyOp13
 70
     1
102
RTVSPropertyOp14
 70
     1
102
RTVSPropertyOp15
 70
     1
102
RTVSPropertyOp16
 70
     1
102
RTVSPropertyOp17
 70
     1
102
RTVSPropertyOp18
 70
     1
102
RTVSPropertyOp19
 70
     1
102
RTVSPropertyOp20
 70
     1
102
RTVSPropertyOp21
 70
     1
102
RTVSPropertyOp22
 70
     1
102
RTVSPropertyOp23
 70
     1
102
RTVSPropertyOp24
 70
     1
102
RTVSPropertyOp25
 70
     1
102
RTVSPropertyOp26
 70
     1
102
RTVSPropertyOp27
 70
     1
102
RTVSPropertyOp28
 70
     1
102
RTVSPropertyOp29
 70
     1
102
RTVSPropertyOp30
 70
     1
102
RTVSPropertyOp31
 70
     1
102
RTVSPropertyOp32
 70
     1
102
RTVSPropertyOp33
 70
     1
102
RTVSPropertyOp34
 70
     1
102
RTVSPropertyOp35
 70
     1
102
RTVSPropertyOp36
 70
     1
102
RTVSPropertyOp37
 70
     1
102
RTVSPropertyOp38
 70
     1
102
RTVSPropertyOp39
 70
     1
102
RTVSPropertyOp40
 70
     1
102
RTVSPropertyOp41
 70
     1
102
RTVSPropertyOp42
 70
     1
102
RTVSPropertyOp43
 70
     1
102
RTVSPropertyOp44
 70
     1
102
RTVSPropertyOp45
 70
     1
102
RTVSPropertyOp46
 70
     1
102
RTVSPropertyOp47
 70
     1
102
RTVSPropertyOp48
 70
     1
102
RTVSPropertyOp49
 70
     1
102
RTVSPropertyOp50
 70
     1
102
RTVSPropertyOp51
 70
     0
102
RTVSPropertyOp52
 70
     0
102
RTVSPropertyOp53
 70
     1
102
RTVSPropertyOp54
 70
     1
102
RTVSPropertyOp55
 70
     1
102
RTVSPropertyOp56
 70
     1
102
RTVSPropertyOp57
 70
     1
102
RTVSPost2010Prop28
280
     1
102
RTVSPost2010PropOp28
 70
     1
102
RTVSPost2010Prop29
280
     1
102
RTVSPost2010PropOp29
 70
     1
102
RTVSPost2010Prop30
280
     0
102
RTVSPost2010PropOp30
 70
     1
102
RTVSPost2010Prop31
280
     0
102
RTVSPost2010PropOp31
 70
     1
102
RTVSPost2010Prop32
280
     0
102
RTVSPost2010PropOp32
 70
     1
102
RTVSPost2010Prop33
280
     0
102
RTVSPost2010PropOp33
 70
     1
102
RTVSPost2010Prop34
280
     0
102
RTVSPost2010PropOp34
 70
     1
102
RTVSPost2010Prop35
280
     0
102
RTVSPost2010PropOp35
 70
     1
102
RTVSPost2010Prop36
280
     0
102
RTVSPost2010PropOp36
 70
     1
102
RTVSPost2010Prop37
 90
       50
102
RTVSPost2010PropOp37
 70
     1
102
RTVSPost2010Prop38
140
0.0
102
RTVSPost2010PropOp38
 70
     1
102
RTVSPost2010Prop39
140
1.0
102
RTVSPost2010PropOp39
 70
     1
102
RTVSPost2010Prop40
 90
        0
102
RTVSPost2010PropOp40
 70
     1
102
RTVSPost2010Prop41ColorIndex
 90
       18
102
RTVSPost2010Prop41ColorRGB
 90
        0
102
RTVSPost2010PropOp41
 70
     1
102
RTVSPost2010Prop42
 90
       50
102
RTVSPost2010PropOp42
 70
     1
102
RTVSPost2010Prop43
 90
        3
102
RTVSPost2010PropOp43
 70
     1
102
RTVSPost2010Prop44ColorIndex
 90
        5
102
RTVSPost2010Prop44ColorRGB
 90
      255
102
RTVSPost2010PropOp44
 70
     1
102
RTVSPost2010Prop45
280
     0
102
RTVSPost2010PropOp45
 70
     1
102
RTVSPost2010Prop46
 90
       50
102
RTVSPost2010PropOp46
 70
     1
102
RTVSPost2010Prop47
 90
       50
102
RTVSPost2010PropOp47
 70
     1
102
RTVSPost2010Prop48
 90
       50
102
RTVSPost2010PropOp48
 70
     1
102
RTVSPost2010Prop49
280
     0
102
RTVSPost2010PropOp49
 70
     1
102
RTVSPost2010Prop50
 90
       50
102
RTVSPost2010PropOp50
 70
     1
102
RTVSPost2010Prop51ColorIndex
 90
      256
102
RTVSPost2010Prop51ColorRGB
 90
-16777216
102
RTVSPost2010PropOp51
 70
     0
102
RTVSPost2010Prop52
140
1.0
102
RTVSPost2010PropOp52
 70
     0
102
RTVSPost2010Prop53
 90
        2
102
RTVSPost2010PropOp53
 70
     1
102
RTVSPost2010Prop54
  1
strokes_ogs.tif
102
RTVSPost2010PropOp54
 70
     1
102
RTVSPost2010Prop55
280
     0
102
RTVSPost2010PropOp55
 70
     1
102
RTVSPost2010Prop56
140
1.0
102
RTVSPost2010PropOp56
 70
     1
102
RTVSPost2010Prop57
140
1.0
102
RTVSPost2010PropOp57
 70
     1
  0
XRECORD
  5
3BB3
102
{ACAD_REACTORS
330
3BB2
102
}
330
3BB2
100
AcDbXrecord
280
     1
102
RTVSPropertyOp0
 70
     1
102
RTVSPropertyOp1
 70
     1
102
RTVSPropertyOp2
 70
     1
102
RTVSPropertyOp3
 70
     1
102
RTVSPropertyOp4
 70
     1
102
RTVSPropertyOp5
 70
     1
102
RTVSPropertyOp6
 70
     1
102
RTVSPropertyOp7
 70
     1
102
RTVSPropertyOp8
 70
     1
102
RTVSPropertyOp9
 70
     1
102
RTVSPropertyOp10
 70
     1
102
RTVSPropertyOp11
 70
     1
102
RTVSPropertyOp12
 70
     1
102
RTVSPropertyOp13
 70
     1
102
RTVSPropertyOp14
 70
     1
102
RTVSPropertyOp15
 70
     1
102
RTVSPropertyOp16
 70
     1
102
RTVSPropertyOp17
 70
     1
102
RTVSPropertyOp18
 70
     1
102
RTVSPropertyOp19
 70
     1
102
RTVSPropertyOp20
 70
     1
102
RTVSPropertyOp21
 70
     1
102
RTVSPropertyOp22
 70
     1
102
RTVSPropertyOp23
 70
     1
102
RTVSPropertyOp24
 70
     1
102
RTVSPropertyOp25
 70
     1
102
RTVSPropertyOp26
 70
     1
102
RTVSPropertyOp27
 70
     1
102
RTVSPropertyOp28
 70
     1
102
RTVSPropertyOp29
 70
     1
102
RTVSPropertyOp30
 70
     1
102
RTVSPropertyOp31
 70
     1
102
RTVSPropertyOp32
 70
     1
102
RTVSPropertyOp33
 70
     1
102
RTVSPropertyOp34
 70
     1
102
RTVSPropertyOp35
 70
     1
102
RTVSPropertyOp36
 70
     1
102
RTVSPropertyOp37
 70
     1
102
RTVSPropertyOp38
 70
     1
102
RTVSPropertyOp39
 70
     1
102
RTVSPropertyOp40
 70
     1
102
RTVSPropertyOp41
 70
     1
102
RTVSPropertyOp42
 70
     1
102
RTVSPropertyOp43
 70
     1
102
RTVSPropertyOp44
 70
     1
102
RTVSPropertyOp45
 70
     1
102
RTVSPropertyOp46
 70
     1
102
RTVSPropertyOp47
 70
     1
102
RTVSPropertyOp48
 70
     1
102
RTVSPropertyOp49
 70
     1
102
RTVSPropertyOp50
 70
     1
102
RTVSPropertyOp51
 70
     0
102
RTVSPropertyOp52
 70
     0
102
RTVSPropertyOp53
 70
     1
102
RTVSPropertyOp54
 70
     1
102
RTVSPropertyOp55
 70
     1
102
RTVSPropertyOp56
 70
     1
102
RTVSPropertyOp57
 70
     1
102
RTVSPost2010Prop28
280
     0
102
RTVSPost2010PropOp28
 70
     1
102
RTVSPost2010Prop29
280
     1
102
RTVSPost2010PropOp29
 70
     1
102
RTVSPost2010Prop30
280
     1
102
RTVSPost2010PropOp30
 70
     1
102
RTVSPost2010Prop31
280
     0
102
RTVSPost2010PropOp31
 70
     1
102
RTVSPost2010Prop32
280
     0
102
RTVSPost2010PropOp32
 70
     1
102
RTVSPost2010Prop33
280
     0
102
RTVSPost2010PropOp33
 70
     1
102
RTVSPost2010Prop34
280
     0
102
RTVSPost2010PropOp34
 70
     1
102
RTVSPost2010Prop35
280
     0
102
RTVSPost2010PropOp35
 70
     1
102
RTVSPost2010Prop36
280
     0
102
RTVSPost2010PropOp36
 70
     1
102
RTVSPost2010Prop37
 90
       50
102
RTVSPost2010PropOp37
 70
     1
102
RTVSPost2010Prop38
140
0.0
102
RTVSPost2010PropOp38
 70
     1
102
RTVSPost2010Prop39
140
1.0
102
RTVSPost2010PropOp39
 70
     1
102
RTVSPost2010Prop40
 90
        0
102
RTVSPost2010PropOp40
 70
     1
102
RTVSPost2010Prop41ColorIndex
 90
       18
102
RTVSPost2010Prop41ColorRGB
 90
        0
102
RTVSPost2010PropOp41
 70
     1
102
RTVSPost2010Prop42
 90
       50
102
RTVSPost2010PropOp42
 70
     1
102
RTVSPost2010Prop43
 90
        3
102
RTVSPost2010PropOp43
 70
     1
102
RTVSPost2010Prop44ColorIndex
 90
        5
102
RTVSPost2010Prop44ColorRGB
 90
      255
102
RTVSPost2010PropOp44
 70
     1
102
RTVSPost2010Prop45
280
     0
102
RTVSPost2010PropOp45
 70
     1
102
RTVSPost2010Prop46
 90
       50
102
RTVSPost2010PropOp46
 70
     1
102
RTVSPost2010Prop47
 90
       50
102
RTVSPost2010PropOp47
 70
     1
102
RTVSPost2010Prop48
 90
       50
102
RTVSPost2010PropOp48
 70
     1
102
RTVSPost2010Prop49
280
     0
102
RTVSPost2010PropOp49
 70
     1
102
RTVSPost2010Prop50
 90
       50
102
RTVSPost2010PropOp50
 70
     1
102
RTVSPost2010Prop51ColorIndex
 90
      256
102
RTVSPost2010Prop51ColorRGB
 90
-16777216
102
RTVSPost2010PropOp51
 70
     0
102
RTVSPost2010Prop52
140
1.0
102
RTVSPost2010PropOp52
 70
     0
102
RTVSPost2010Prop53
 90
        2
102
RTVSPost2010PropOp53
 70
     1
102
RTVSPost2010Prop54
  1
strokes_ogs.tif
102
RTVSPost2010PropOp54
 70
     1
102
RTVSPost2010Prop55
280
     0
102
RTVSPost2010PropOp55
 70
     1
102
RTVSPost2010Prop56
140
1.0
102
RTVSPost2010PropOp56
 70
     1
102
RTVSPost2010Prop57
140
1.0
102
RTVSPost2010PropOp57
 70
     1
  0
XRECORD
  5
3BBB
102
{ACAD_REACTORS
330
3BBA
102
}
330
3BBA
100
AcDbXrecord
280
     1
102
RTVSPropertyOp0
 70
     1
102
RTVSPropertyOp1
 70
     1
102
RTVSPropertyOp2
 70
     1
102
RTVSPropertyOp3
 70
     1
102
RTVSPropertyOp4
 70
     1
102
RTVSPropertyOp5
 70
     1
102
RTVSPropertyOp6
 70
     1
102
RTVSPropertyOp7
 70
     1
102
RTVSPropertyOp8
 70
     1
102
RTVSPropertyOp9
 70
     1
102
RTVSPropertyOp10
 70
     1
102
RTVSPropertyOp11
 70
     1
102
RTVSPropertyOp12
 70
     1
102
RTVSPropertyOp13
 70
     1
102
RTVSPropertyOp14
 70
     1
102
RTVSPropertyOp15
 70
     1
102
RTVSPropertyOp16
 70
     1
102
RTVSPropertyOp17
 70
     1
102
RTVSPropertyOp18
 70
     1
102
RTVSPropertyOp19
 70
     1
102
RTVSPropertyOp20
 70
     1
102
RTVSPropertyOp21
 70
     1
102
RTVSPropertyOp22
 70
     1
102
RTVSPropertyOp23
 70
     1
102
RTVSPropertyOp24
 70
     1
102
RTVSPropertyOp25
 70
     1
102
RTVSPropertyOp26
 70
     1
102
RTVSPropertyOp27
 70
     1
102
RTVSPropertyOp28
 70
     1
102
RTVSPropertyOp29
 70
     1
102
RTVSPropertyOp30
 70
     1
102
RTVSPropertyOp31
 70
     1
102
RTVSPropertyOp32
 70
     1
102
RTVSPropertyOp33
 70
     1
102
RTVSPropertyOp34
 70
     1
102
RTVSPropertyOp35
 70
     1
102
RTVSPropertyOp36
 70
     1
102
RTVSPropertyOp37
 70
     1
102
RTVSPropertyOp38
 70
     1
102
RTVSPropertyOp39
 70
     1
102
RTVSPropertyOp40
 70
     1
102
RTVSPropertyOp41
 70
     1
102
RTVSPropertyOp42
 70
     1
102
RTVSPropertyOp43
 70
     1
102
RTVSPropertyOp44
 70
     1
102
RTVSPropertyOp45
 70
     1
102
RTVSPropertyOp46
 70
     1
102
RTVSPropertyOp47
 70
     1
102
RTVSPropertyOp48
 70
     1
102
RTVSPropertyOp49
 70
     1
102
RTVSPropertyOp50
 70
     1
102
RTVSPropertyOp51
 70
     0
102
RTVSPropertyOp52
 70
     0
102
RTVSPropertyOp53
 70
     1
102
RTVSPropertyOp54
 70
     1
102
RTVSPropertyOp55
 70
     1
102
RTVSPropertyOp56
 70
     1
102
RTVSPropertyOp57
 70
     1
102
RTVSPost2010Prop28
280
     0
102
RTVSPost2010PropOp28
 70
     1
102
RTVSPost2010Prop29
280
     1
102
RTVSPost2010PropOp29
 70
     1
102
RTVSPost2010Prop30
280
     1
102
RTVSPost2010PropOp30
 70
     1
102
RTVSPost2010Prop31
280
     0
102
RTVSPost2010PropOp31
 70
     1
102
RTVSPost2010Prop32
280
     0
102
RTVSPost2010PropOp32
 70
     1
102
RTVSPost2010Prop33
280
     0
102
RTVSPost2010PropOp33
 70
     1
102
RTVSPost2010Prop34
280
     0
102
RTVSPost2010PropOp34
 70
     1
102
RTVSPost2010Prop35
280
     0
102
RTVSPost2010PropOp35
 70
     1
102
RTVSPost2010Prop36
280
     0
102
RTVSPost2010PropOp36
 70
     1
102
RTVSPost2010Prop37
 90
       50
102
RTVSPost2010PropOp37
 70
     1
102
RTVSPost2010Prop38
140
0.0
102
RTVSPost2010PropOp38
 70
     1
102
RTVSPost2010Prop39
140
1.0
102
RTVSPost2010PropOp39
 70
     1
102
RTVSPost2010Prop40
 90
        0
102
RTVSPost2010PropOp40
 70
     1
102
RTVSPost2010Prop41ColorIndex
 90
       18
102
RTVSPost2010Prop41ColorRGB
 90
        0
102
RTVSPost2010PropOp41
 70
     1
102
RTVSPost2010Prop42
 90
       50
102
RTVSPost2010PropOp42
 70
     1
102
RTVSPost2010Prop43
 90
        3
102
RTVSPost2010PropOp43
 70
     1
102
RTVSPost2010Prop44ColorIndex
 90
        5
102
RTVSPost2010Prop44ColorRGB
 90
      255
102
RTVSPost2010PropOp44
 70
     1
102
RTVSPost2010Prop45
280
     0
102
RTVSPost2010PropOp45
 70
     1
102
RTVSPost2010Prop46
 90
       50
102
RTVSPost2010PropOp46
 70
     1
102
RTVSPost2010Prop47
 90
       50
102
RTVSPost2010PropOp47
 70
     1
102
RTVSPost2010Prop48
 90
       50
102
RTVSPost2010PropOp48
 70
     1
102
RTVSPost2010Prop49
280
     0
102
RTVSPost2010PropOp49
 70
     1
102
RTVSPost2010Prop50
 90
       50
102
RTVSPost2010PropOp50
 70
     1
102
RTVSPost2010Prop51ColorIndex
 90
      256
102
RTVSPost2010Prop51ColorRGB
 90
-16777216
102
RTVSPost2010PropOp51
 70
     0
102
RTVSPost2010Prop52
140
1.0
102
RTVSPost2010PropOp52
 70
     0
102
RTVSPost2010Prop53
 90
        2
102
RTVSPost2010PropOp53
 70
     1
102
RTVSPost2010Prop54
  1
strokes_ogs.tif
102
RTVSPost2010PropOp54
 70
     1
102
RTVSPost2010Prop55
280
     0
102
RTVSPost2010PropOp55
 70
     1
102
RTVSPost2010Prop56
140
1.0
102
RTVSPost2010PropOp56
 70
     1
102
RTVSPost2010Prop57
140
1.0
102
RTVSPost2010PropOp57
 70
     1
  0
XRECORD
  5
3BC3
102
{ACAD_REACTORS
330
3BC2
102
}
330
3BC2
100
AcDbXrecord
280
     1
102
RTVSPropertyOp0
 70
     1
102
RTVSPropertyOp1
 70
     1
102
RTVSPropertyOp2
 70
     1
102
RTVSPropertyOp3
 70
     1
102
RTVSPropertyOp4
 70
     1
102
RTVSPropertyOp5
 70
     1
102
RTVSPropertyOp6
 70
     1
102
RTVSPropertyOp7
 70
     1
102
RTVSPropertyOp8
 70
     1
102
RTVSPropertyOp9
 70
     1
102
RTVSPropertyOp10
 70
     1
102
RTVSPropertyOp11
 70
     1
102
RTVSPropertyOp12
 70
     1
102
RTVSPropertyOp13
 70
     1
102
RTVSPropertyOp14
 70
     1
102
RTVSPropertyOp15
 70
     1
102
RTVSPropertyOp16
 70
     1
102
RTVSPropertyOp17
 70
     1
102
RTVSPropertyOp18
 70
     1
102
RTVSPropertyOp19
 70
     1
102
RTVSPropertyOp20
 70
     1
102
RTVSPropertyOp21
 70
     1
102
RTVSPropertyOp22
 70
     1
102
RTVSPropertyOp23
 70
     1
102
RTVSPropertyOp24
 70
     1
102
RTVSPropertyOp25
 70
     1
102
RTVSPropertyOp26
 70
     1
102
RTVSPropertyOp27
 70
     1
102
RTVSPropertyOp28
 70
     1
102
RTVSPropertyOp29
 70
     1
102
RTVSPropertyOp30
 70
     1
102
RTVSPropertyOp31
 70
     1
102
RTVSPropertyOp32
 70
     1
102
RTVSPropertyOp33
 70
     1
102
RTVSPropertyOp34
 70
     1
102
RTVSPropertyOp35
 70
     1
102
RTVSPropertyOp36
 70
     1
102
RTVSPropertyOp37
 70
     1
102
RTVSPropertyOp38
 70
     1
102
RTVSPropertyOp39
 70
     1
102
RTVSPropertyOp40
 70
     1
102
RTVSPropertyOp41
 70
     1
102
RTVSPropertyOp42
 70
     1
102
RTVSPropertyOp43
 70
     1
102
RTVSPropertyOp44
 70
     1
102
RTVSPropertyOp45
 70
     1
102
RTVSPropertyOp46
 70
     1
102
RTVSPropertyOp47
 70
     1
102
RTVSPropertyOp48
 70
     1
102
RTVSPropertyOp49
 70
     1
102
RTVSPropertyOp50
 70
     1
102
RTVSPropertyOp51
 70
     0
102
RTVSPropertyOp52
 70
     0
102
RTVSPropertyOp53
 70
     1
102
RTVSPropertyOp54
 70
     1
102
RTVSPropertyOp55
 70
     1
102
RTVSPropertyOp56
 70
     1
102
RTVSPropertyOp57
 70
     1
102
RTVSPost2010Prop28
280
     0
102
RTVSPost2010PropOp28
 70
     1
102
RTVSPost2010Prop29
280
     1
102
RTVSPost2010PropOp29
 70
     1
102
RTVSPost2010Prop30
280
     1
102
RTVSPost2010PropOp30
 70
     1
102
RTVSPost2010Prop31
280
     0
102
RTVSPost2010PropOp31
 70
     1
102
RTVSPost2010Prop32
280
     0
102
RTVSPost2010PropOp32
 70
     1
102
RTVSPost2010Prop33
280
     0
102
RTVSPost2010PropOp33
 70
     1
102
RTVSPost2010Prop34
280
     0
102
RTVSPost2010PropOp34
 70
     1
102
RTVSPost2010Prop35
280
     0
102
RTVSPost2010PropOp35
 70
     1
102
RTVSPost2010Prop36
280
     0
102
RTVSPost2010PropOp36
 70
     1
102
RTVSPost2010Prop37
 90
       50
102
RTVSPost2010PropOp37
 70
     1
102
RTVSPost2010Prop38
140
0.0
102
RTVSPost2010PropOp38
 70
     1
102
RTVSPost2010Prop39
140
1.0
102
RTVSPost2010PropOp39
 70
     1
102
RTVSPost2010Prop40
 90
        0
102
RTVSPost2010PropOp40
 70
     1
102
RTVSPost2010Prop41ColorIndex
 90
       18
102
RTVSPost2010Prop41ColorRGB
 90
        0
102
RTVSPost2010PropOp41
 70
     1
102
RTVSPost2010Prop42
 90
       50
102
RTVSPost2010PropOp42
 70
     1
102
RTVSPost2010Prop43
 90
        3
102
RTVSPost2010PropOp43
 70
     1
102
RTVSPost2010Prop44ColorIndex
 90
        5
102
RTVSPost2010Prop44ColorRGB
 90
      255
102
RTVSPost2010PropOp44
 70
     1
102
RTVSPost2010Prop45
280
     0
102
RTVSPost2010PropOp45
 70
     1
102
RTVSPost2010Prop46
 90
       50
102
RTVSPost2010PropOp46
 70
     1
102
RTVSPost2010Prop47
 90
       50
102
RTVSPost2010PropOp47
 70
     1
102
RTVSPost2010Prop48
 90
       50
102
RTVSPost2010PropOp48
 70
     1
102
RTVSPost2010Prop49
280
     0
102
RTVSPost2010PropOp49
 70
     1
102
RTVSPost2010Prop50
 90
       50
102
RTVSPost2010PropOp50
 70
     1
102
RTVSPost2010Prop51ColorIndex
 90
      256
102
RTVSPost2010Prop51ColorRGB
 90
-16777216
102
RTVSPost2010PropOp51
 70
     0
102
RTVSPost2010Prop52
140
1.0
102
RTVSPost2010PropOp52
 70
     0
102
RTVSPost2010Prop53
 90
        2
102
RTVSPost2010PropOp53
 70
     1
102
RTVSPost2010Prop54
  1
strokes_ogs.tif
102
RTVSPost2010PropOp54
 70
     1
102
RTVSPost2010Prop55
280
     0
102
RTVSPost2010PropOp55
 70
     1
102
RTVSPost2010Prop56
140
1.0
102
RTVSPost2010PropOp56
 70
     1
102
RTVSPost2010Prop57
140
1.0
102
RTVSPost2010PropOp57
 70
     1
  0
XRECORD
  5
3BB7
102
{ACAD_REACTORS
330
3BB6
102
}
330
3BB6
100
AcDbXrecord
280
     1
102
RTVSPropertyOp0
 70
     1
102
RTVSPropertyOp1
 70
     1
102
RTVSPropertyOp2
 70
     1
102
RTVSPropertyOp3
 70
     1
102
RTVSPropertyOp4
 70
     1
102
RTVSPropertyOp5
 70
     1
102
RTVSPropertyOp6
 70
     1
102
RTVSPropertyOp7
 70
     1
102
RTVSPropertyOp8
 70
     1
102
RTVSPropertyOp9
 70
     1
102
RTVSPropertyOp10
 70
     1
102
RTVSPropertyOp11
 70
     1
102
RTVSPropertyOp12
 70
     1
102
RTVSPropertyOp13
 70
     1
102
RTVSPropertyOp14
 70
     1
102
RTVSPropertyOp15
 70
     1
102
RTVSPropertyOp16
 70
     1
102
RTVSPropertyOp17
 70
     1
102
RTVSPropertyOp18
 70
     1
102
RTVSPropertyOp19
 70
     1
102
RTVSPropertyOp20
 70
     1
102
RTVSPropertyOp21
 70
     1
102
RTVSPropertyOp22
 70
     1
102
RTVSPropertyOp23
 70
     1
102
RTVSPropertyOp24
 70
     1
102
RTVSPropertyOp25
 70
     1
102
RTVSPropertyOp26
 70
     1
102
RTVSPropertyOp27
 70
     1
102
RTVSPropertyOp28
 70
     1
102
RTVSPropertyOp29
 70
     1
102
RTVSPropertyOp30
 70
     1
102
RTVSPropertyOp31
 70
     1
102
RTVSPropertyOp32
 70
     1
102
RTVSPropertyOp33
 70
     1
102
RTVSPropertyOp34
 70
     1
102
RTVSPropertyOp35
 70
     1
102
RTVSPropertyOp36
 70
     1
102
RTVSPropertyOp37
 70
     1
102
RTVSPropertyOp38
 70
     1
102
RTVSPropertyOp39
 70
     1
102
RTVSPropertyOp40
 70
     1
102
RTVSPropertyOp41
 70
     1
102
RTVSPropertyOp42
 70
     1
102
RTVSPropertyOp43
 70
     1
102
RTVSPropertyOp44
 70
     1
102
RTVSPropertyOp45
 70
     1
102
RTVSPropertyOp46
 70
     1
102
RTVSPropertyOp47
 70
     1
102
RTVSPropertyOp48
 70
     1
102
RTVSPropertyOp49
 70
     1
102
RTVSPropertyOp50
 70
     1
102
RTVSPropertyOp51
 70
     0
102
RTVSPropertyOp52
 70
     0
102
RTVSPropertyOp53
 70
     1
102
RTVSPropertyOp54
 70
     1
102
RTVSPropertyOp55
 70
     1
102
RTVSPropertyOp56
 70
     1
102
RTVSPropertyOp57
 70
     1
102
RTVSPost2010Prop28
280
     0
102
RTVSPost2010PropOp28
 70
     1
102
RTVSPost2010Prop29
280
     1
102
RTVSPost2010PropOp29
 70
     1
102
RTVSPost2010Prop30
280
     1
102
RTVSPost2010PropOp30
 70
     1
102
RTVSPost2010Prop31
280
     0
102
RTVSPost2010PropOp31
 70
     1
102
RTVSPost2010Prop32
280
     0
102
RTVSPost2010PropOp32
 70
     1
102
RTVSPost2010Prop33
280
     0
102
RTVSPost2010PropOp33
 70
     1
102
RTVSPost2010Prop34
280
     0
102
RTVSPost2010PropOp34
 70
     1
102
RTVSPost2010Prop35
280
     0
102
RTVSPost2010PropOp35
 70
     1
102
RTVSPost2010Prop36
280
     0
102
RTVSPost2010PropOp36
 70
     1
102
RTVSPost2010Prop37
 90
       50
102
RTVSPost2010PropOp37
 70
     1
102
RTVSPost2010Prop38
140
0.0
102
RTVSPost2010PropOp38
 70
     1
102
RTVSPost2010Prop39
140
1.0
102
RTVSPost2010PropOp39
 70
     1
102
RTVSPost2010Prop40
 90
        0
102
RTVSPost2010PropOp40
 70
     1
102
RTVSPost2010Prop41ColorIndex
 90
       18
102
RTVSPost2010Prop41ColorRGB
 90
        0
102
RTVSPost2010PropOp41
 70
     1
102
RTVSPost2010Prop42
 90
       50
102
RTVSPost2010PropOp42
 70
     1
102
RTVSPost2010Prop43
 90
        3
102
RTVSPost2010PropOp43
 70
     1
102
RTVSPost2010Prop44ColorIndex
 90
        5
102
RTVSPost2010Prop44ColorRGB
 90
      255
102
RTVSPost2010PropOp44
 70
     1
102
RTVSPost2010Prop45
280
     0
102
RTVSPost2010PropOp45
 70
     1
102
RTVSPost2010Prop46
 90
       50
102
RTVSPost2010PropOp46
 70
     1
102
RTVSPost2010Prop47
 90
       50
102
RTVSPost2010PropOp47
 70
     1
102
RTVSPost2010Prop48
 90
       50
102
RTVSPost2010PropOp48
 70
     1
102
RTVSPost2010Prop49
280
     0
102
RTVSPost2010PropOp49
 70
     1
102
RTVSPost2010Prop50
 90
       50
102
RTVSPost2010PropOp50
 70
     1
102
RTVSPost2010Prop51ColorIndex
 90
      256
102
RTVSPost2010Prop51ColorRGB
 90
-16777216
102
RTVSPost2010PropOp51
 70
     0
102
RTVSPost2010Prop52
140
1.0
102
RTVSPost2010PropOp52
 70
     0
102
RTVSPost2010Prop53
 90
        2
102
RTVSPost2010PropOp53
 70
     1
102
RTVSPost2010Prop54
  1
strokes_ogs.tif
102
RTVSPost2010PropOp54
 70
     1
102
RTVSPost2010Prop55
280
     0
102
RTVSPost2010PropOp55
 70
     1
102
RTVSPost2010Prop56
140
1.0
102
RTVSPost2010PropOp56
 70
     1
102
RTVSPost2010Prop57
140
1.0
102
RTVSPost2010PropOp57
 70
     1
  0
XRECORD
  5
3BB9
102
{ACAD_REACTORS
330
3BB8
102
}
330
3BB8
100
AcDbXrecord
280
     1
102
RTVSPropertyOp0
 70
     1
102
RTVSPropertyOp1
 70
     1
102
RTVSPropertyOp2
 70
     1
102
RTVSPropertyOp3
 70
     1
102
RTVSPropertyOp4
 70
     1
102
RTVSPropertyOp5
 70
     1
102
RTVSPropertyOp6
 70
     1
102
RTVSPropertyOp7
 70
     1
102
RTVSPropertyOp8
 70
     1
102
RTVSPropertyOp9
 70
     1
102
RTVSPropertyOp10
 70
     1
102
RTVSPropertyOp11
 70
     1
102
RTVSPropertyOp12
 70
     1
102
RTVSPropertyOp13
 70
     1
102
RTVSPropertyOp14
 70
     1
102
RTVSPropertyOp15
 70
     1
102
RTVSPropertyOp16
 70
     1
102
RTVSPropertyOp17
 70
     1
102
RTVSPropertyOp18
 70
     1
102
RTVSPropertyOp19
 70
     1
102
RTVSPropertyOp20
 70
     1
102
RTVSPropertyOp21
 70
     1
102
RTVSPropertyOp22
 70
     1
102
RTVSPropertyOp23
 70
     1
102
RTVSPropertyOp24
 70
     1
102
RTVSPropertyOp25
 70
     1
102
RTVSPropertyOp26
 70
     1
102
RTVSPropertyOp27
 70
     1
102
RTVSPropertyOp28
 70
     1
102
RTVSPropertyOp29
 70
     1
102
RTVSPropertyOp30
 70
     1
102
RTVSPropertyOp31
 70
     1
102
RTVSPropertyOp32
 70
     1
102
RTVSPropertyOp33
 70
     1
102
RTVSPropertyOp34
 70
     1
102
RTVSPropertyOp35
 70
     1
102
RTVSPropertyOp36
 70
     1
102
RTVSPropertyOp37
 70
     1
102
RTVSPropertyOp38
 70
     1
102
RTVSPropertyOp39
 70
     1
102
RTVSPropertyOp40
 70
     1
102
RTVSPropertyOp41
 70
     1
102
RTVSPropertyOp42
 70
     1
102
RTVSPropertyOp43
 70
     1
102
RTVSPropertyOp44
 70
     1
102
RTVSPropertyOp45
 70
     1
102
RTVSPropertyOp46
 70
     1
102
RTVSPropertyOp47
 70
     1
102
RTVSPropertyOp48
 70
     1
102
RTVSPropertyOp49
 70
     1
102
RTVSPropertyOp50
 70
     1
102
RTVSPropertyOp51
 70
     0
102
RTVSPropertyOp52
 70
     0
102
RTVSPropertyOp53
 70
     1
102
RTVSPropertyOp54
 70
     1
102
RTVSPropertyOp55
 70
     1
102
RTVSPropertyOp56
 70
     1
102
RTVSPropertyOp57
 70
     1
102
RTVSPost2010Prop28
280
     0
102
RTVSPost2010PropOp28
 70
     1
102
RTVSPost2010Prop29
280
     1
102
RTVSPost2010PropOp29
 70
     1
102
RTVSPost2010Prop30
280
     1
102
RTVSPost2010PropOp30
 70
     1
102
RTVSPost2010Prop31
280
     0
102
RTVSPost2010PropOp31
 70
     1
102
RTVSPost2010Prop32
280
     0
102
RTVSPost2010PropOp32
 70
     1
102
RTVSPost2010Prop33
280
     0
102
RTVSPost2010PropOp33
 70
     1
102
RTVSPost2010Prop34
280
     0
102
RTVSPost2010PropOp34
 70
     1
102
RTVSPost2010Prop35
280
     0
102
RTVSPost2010PropOp35
 70
     1
102
RTVSPost2010Prop36
280
     0
102
RTVSPost2010PropOp36
 70
     1
102
RTVSPost2010Prop37
 90
       50
102
RTVSPost2010PropOp37
 70
     1
102
RTVSPost2010Prop38
140
0.0
102
RTVSPost2010PropOp38
 70
     1
102
RTVSPost2010Prop39
140
1.0
102
RTVSPost2010PropOp39
 70
     1
102
RTVSPost2010Prop40
 90
        0
102
RTVSPost2010PropOp40
 70
     1
102
RTVSPost2010Prop41ColorIndex
 90
       18
102
RTVSPost2010Prop41ColorRGB
 90
        0
102
RTVSPost2010PropOp41
 70
     1
102
RTVSPost2010Prop42
 90
       50
102
RTVSPost2010PropOp42
 70
     1
102
RTVSPost2010Prop43
 90
        3
102
RTVSPost2010PropOp43
 70
     1
102
RTVSPost2010Prop44ColorIndex
 90
        5
102
RTVSPost2010Prop44ColorRGB
 90
      255
102
RTVSPost2010PropOp44
 70
     1
102
RTVSPost2010Prop45
280
     0
102
RTVSPost2010PropOp45
 70
     1
102
RTVSPost2010Prop46
 90
       50
102
RTVSPost2010PropOp46
 70
     1
102
RTVSPost2010Prop47
 90
       50
102
RTVSPost2010PropOp47
 70
     1
102
RTVSPost2010Prop48
 90
       50
102
RTVSPost2010PropOp48
 70
     1
102
RTVSPost2010Prop49
280
     0
102
RTVSPost2010PropOp49
 70
     1
102
RTVSPost2010Prop50
 90
       50
102
RTVSPost2010PropOp50
 70
     1
102
RTVSPost2010Prop51ColorIndex
 90
      256
102
RTVSPost2010Prop51ColorRGB
 90
-16777216
102
RTVSPost2010PropOp51
 70
     0
102
RTVSPost2010Prop52
140
1.0
102
RTVSPost2010PropOp52
 70
     0
102
RTVSPost2010Prop53
 90
        2
102
RTVSPost2010PropOp53
 70
     1
102
RTVSPost2010Prop54
  1
strokes_ogs.tif
102
RTVSPost2010PropOp54
 70
     1
102
RTVSPost2010Prop55
280
     0
102
RTVSPost2010PropOp55
 70
     1
102
RTVSPost2010Prop56
140
1.0
102
RTVSPost2010PropOp56
 70
     1
102
RTVSPost2010Prop57
140
1.0
102
RTVSPost2010PropOp57
 70
     1
  0
XRECORD
  5
3BC9
102
{ACAD_REACTORS
330
3BC8
102
}
330
3BC8
100
AcDbXrecord
280
     1
102
RTVSPropertyOp0
 70
     0
102
RTVSPropertyOp1
 70
     0
102
RTVSPropertyOp2
 70
     0
102
RTVSPropertyOp3
 70
     0
102
RTVSPropertyOp4
 70
     0
102
RTVSPropertyOp5
 70
     0
102
RTVSPropertyOp6
 70
     0
102
RTVSPropertyOp7
 70
     0
102
RTVSPropertyOp8
 70
     0
102
RTVSPropertyOp9
 70
     0
102
RTVSPropertyOp10
 70
     0
102
RTVSPropertyOp11
 70
     0
102
RTVSPropertyOp12
 70
     0
102
RTVSPropertyOp13
 70
     0
102
RTVSPropertyOp14
 70
     2
102
RTVSPropertyOp15
 70
     0
102
RTVSPropertyOp16
 70
     0
102
RTVSPropertyOp17
 70
     0
102
RTVSPropertyOp18
 70
     0
102
RTVSPropertyOp19
 70
     0
102
RTVSPropertyOp20
 70
     0
102
RTVSPropertyOp21
 70
     0
102
RTVSPropertyOp22
 70
     0
102
RTVSPropertyOp23
 70
     0
102
RTVSPropertyOp24
 70
     0
102
RTVSPropertyOp25
 70
     0
102
RTVSPropertyOp26
 70
     0
102
RTVSPropertyOp27
 70
     0
102
RTVSPropertyOp28
 70
     0
102
RTVSPropertyOp29
 70
     0
102
RTVSPropertyOp30
 70
     0
102
RTVSPropertyOp31
 70
     0
102
RTVSPropertyOp32
 70
     0
102
RTVSPropertyOp33
 70
     0
102
RTVSPropertyOp34
 70
     0
102
RTVSPropertyOp35
 70
     0
102
RTVSPropertyOp36
 70
     0
102
RTVSPropertyOp37
 70
     0
102
RTVSPropertyOp38
 70
     0
102
RTVSPropertyOp39
 70
     0
102
RTVSPropertyOp40
 70
     0
102
RTVSPropertyOp41
 70
     0
102
RTVSPropertyOp42
 70
     0
102
RTVSPropertyOp43
 70
     0
102
RTVSPropertyOp44
 70
     0
102
RTVSPropertyOp45
 70
     0
102
RTVSPropertyOp46
 70
     0
102
RTVSPropertyOp47
 70
     0
102
RTVSPropertyOp48
 70
     0
102
RTVSPropertyOp49
 70
     0
102
RTVSPropertyOp50
 70
     0
102
RTVSPropertyOp51
 70
     0
102
RTVSPropertyOp52
 70
     0
102
RTVSPropertyOp53
 70
     0
102
RTVSPropertyOp54
 70
     0
102
RTVSPropertyOp55
 70
     0
102
RTVSPropertyOp56
 70
     0
102
RTVSPropertyOp57
 70
     0
102
RTVSPost2010Prop28
280
     0
102
RTVSPost2010PropOp28
 70
     0
102
RTVSPost2010Prop29
280
     1
102
RTVSPost2010PropOp29
 70
     0
102
RTVSPost2010Prop30
280
     1
102
RTVSPost2010PropOp30
 70
     0
102
RTVSPost2010Prop31
280
     0
102
RTVSPost2010PropOp31
 70
     0
102
RTVSPost2010Prop32
280
     0
102
RTVSPost2010PropOp32
 70
     0
102
RTVSPost2010Prop33
280
     0
102
RTVSPost2010PropOp33
 70
     0
102
RTVSPost2010Prop34
280
     0
102
RTVSPost2010PropOp34
 70
     0
102
RTVSPost2010Prop35
280
     0
102
RTVSPost2010PropOp35
 70
     0
102
RTVSPost2010Prop36
280
     0
102
RTVSPost2010PropOp36
 70
     0
102
RTVSPost2010Prop37
 90
       50
102
RTVSPost2010PropOp37
 70
     0
102
RTVSPost2010Prop38
140
0.0
102
RTVSPost2010PropOp38
 70
     0
102
RTVSPost2010Prop39
140
1.0
102
RTVSPost2010PropOp39
 70
     0
102
RTVSPost2010Prop40
 90
        0
102
RTVSPost2010PropOp40
 70
     0
102
RTVSPost2010Prop41ColorIndex
 90
       18
102
RTVSPost2010Prop41ColorRGB
 90
        0
102
RTVSPost2010PropOp41
 70
     0
102
RTVSPost2010Prop42
 90
       50
102
RTVSPost2010PropOp42
 70
     0
102
RTVSPost2010Prop43
 90
        3
102
RTVSPost2010PropOp43
 70
     0
102
RTVSPost2010Prop44ColorIndex
 90
        5
102
RTVSPost2010Prop44ColorRGB
 90
      255
102
RTVSPost2010PropOp44
 70
     0
102
RTVSPost2010Prop45
280
     0
102
RTVSPost2010PropOp45
 70
     0
102
RTVSPost2010Prop46
 90
       50
102
RTVSPost2010PropOp46
 70
     0
102
RTVSPost2010Prop47
 90
       50
102
RTVSPost2010PropOp47
 70
     0
102
RTVSPost2010Prop48
 90
       50
102
RTVSPost2010PropOp48
 70
     0
102
RTVSPost2010Prop49
280
     0
102
RTVSPost2010PropOp49
 70
     0
102
RTVSPost2010Prop50
 90
       50
102
RTVSPost2010PropOp50
 70
     0
102
RTVSPost2010Prop51ColorIndex
 90
      256
102
RTVSPost2010Prop51ColorRGB
 90
-16777216
102
RTVSPost2010PropOp51
 70
     0
102
RTVSPost2010Prop52
140
1.0
102
RTVSPost2010PropOp52
 70
     0
102
RTVSPost2010Prop53
 90
        2
102
RTVSPost2010PropOp53
 70
     0
102
RTVSPost2010Prop54
  1
strokes_ogs.tif
102
RTVSPost2010PropOp54
 70
     0
102
RTVSPost2010Prop55
280
     0
102
RTVSPost2010PropOp55
 70
     0
102
RTVSPost2010Prop56
140
1.0
102
RTVSPost2010PropOp56
 70
     0
102
RTVSPost2010Prop57
140
1.0
102
RTVSPost2010PropOp57
 70
     0
  0
XRECORD
  5
3BC1
102
{ACAD_REACTORS
330
3BC0
102
}
330
3BC0
100
AcDbXrecord
280
     1
102
RTVSPropertyOp0
 70
     1
102
RTVSPropertyOp1
 70
     1
102
RTVSPropertyOp2
 70
     1
102
RTVSPropertyOp3
 70
     1
102
RTVSPropertyOp4
 70
     1
102
RTVSPropertyOp5
 70
     1
102
RTVSPropertyOp6
 70
     1
102
RTVSPropertyOp7
 70
     1
102
RTVSPropertyOp8
 70
     1
102
RTVSPropertyOp9
 70
     1
102
RTVSPropertyOp10
 70
     1
102
RTVSPropertyOp11
 70
     1
102
RTVSPropertyOp12
 70
     1
102
RTVSPropertyOp13
 70
     1
102
RTVSPropertyOp14
 70
     1
102
RTVSPropertyOp15
 70
     1
102
RTVSPropertyOp16
 70
     1
102
RTVSPropertyOp17
 70
     1
102
RTVSPropertyOp18
 70
     1
102
RTVSPropertyOp19
 70
     1
102
RTVSPropertyOp20
 70
     1
102
RTVSPropertyOp21
 70
     1
102
RTVSPropertyOp22
 70
     1
102
RTVSPropertyOp23
 70
     1
102
RTVSPropertyOp24
 70
     1
102
RTVSPropertyOp25
 70
     1
102
RTVSPropertyOp26
 70
     1
102
RTVSPropertyOp27
 70
     1
102
RTVSPropertyOp28
 70
     1
102
RTVSPropertyOp29
 70
     1
102
RTVSPropertyOp30
 70
     1
102
RTVSPropertyOp31
 70
     1
102
RTVSPropertyOp32
 70
     1
102
RTVSPropertyOp33
 70
     1
102
RTVSPropertyOp34
 70
     1
102
RTVSPropertyOp35
 70
     1
102
RTVSPropertyOp36
 70
     1
102
RTVSPropertyOp37
 70
     1
102
RTVSPropertyOp38
 70
     1
102
RTVSPropertyOp39
 70
     1
102
RTVSPropertyOp40
 70
     1
102
RTVSPropertyOp41
 70
     1
102
RTVSPropertyOp42
 70
     1
102
RTVSPropertyOp43
 70
     1
102
RTVSPropertyOp44
 70
     1
102
RTVSPropertyOp45
 70
     1
102
RTVSPropertyOp46
 70
     1
102
RTVSPropertyOp47
 70
     1
102
RTVSPropertyOp48
 70
     1
102
RTVSPropertyOp49
 70
     1
102
RTVSPropertyOp50
 70
     1
102
RTVSPropertyOp51
 70
     0
102
RTVSPropertyOp52
 70
     0
102
RTVSPropertyOp53
 70
     1
102
RTVSPropertyOp54
 70
     1
102
RTVSPropertyOp55
 70
     1
102
RTVSPropertyOp56
 70
     1
102
RTVSPropertyOp57
 70
     1
102
RTVSPost2010Prop28
280
     0
102
RTVSPost2010PropOp28
 70
     1
102
RTVSPost2010Prop29
280
     1
102
RTVSPost2010PropOp29
 70
     1
102
RTVSPost2010Prop30
280
     1
102
RTVSPost2010PropOp30
 70
     1
102
RTVSPost2010Prop31
280
     0
102
RTVSPost2010PropOp31
 70
     1
102
RTVSPost2010Prop32
280
     0
102
RTVSPost2010PropOp32
 70
     1
102
RTVSPost2010Prop33
280
     0
102
RTVSPost2010PropOp33
 70
     1
102
RTVSPost2010Prop34
280
     0
102
RTVSPost2010PropOp34
 70
     1
102
RTVSPost2010Prop35
280
     0
102
RTVSPost2010PropOp35
 70
     1
102
RTVSPost2010Prop36
280
     0
102
RTVSPost2010PropOp36
 70
     1
102
RTVSPost2010Prop37
 90
       50
102
RTVSPost2010PropOp37
 70
     1
102
RTVSPost2010Prop38
140
0.0
102
RTVSPost2010PropOp38
 70
     1
102
RTVSPost2010Prop39
140
1.0
102
RTVSPost2010PropOp39
 70
     1
102
RTVSPost2010Prop40
 90
        0
102
RTVSPost2010PropOp40
 70
     1
102
RTVSPost2010Prop41ColorIndex
 90
       18
102
RTVSPost2010Prop41ColorRGB
 90
        0
102
RTVSPost2010PropOp41
 70
     1
102
RTVSPost2010Prop42
 90
       50
102
RTVSPost2010PropOp42
 70
     1
102
RTVSPost2010Prop43
 90
        3
102
RTVSPost2010PropOp43
 70
     1
102
RTVSPost2010Prop44ColorIndex
 90
        5
102
RTVSPost2010Prop44ColorRGB
 90
      255
102
RTVSPost2010PropOp44
 70
     1
102
RTVSPost2010Prop45
280
     0
102
RTVSPost2010PropOp45
 70
     1
102
RTVSPost2010Prop46
 90
       50
102
RTVSPost2010PropOp46
 70
     1
102
RTVSPost2010Prop47
 90
       50
102
RTVSPost2010PropOp47
 70
     1
102
RTVSPost2010Prop48
 90
       50
102
RTVSPost2010PropOp48
 70
     1
102
RTVSPost2010Prop49
280
     0
102
RTVSPost2010PropOp49
 70
     1
102
RTVSPost2010Prop50
 90
       50
102
RTVSPost2010PropOp50
 70
     1
102
RTVSPost2010Prop51ColorIndex
 90
      256
102
RTVSPost2010Prop51ColorRGB
 90
-16777216
102
RTVSPost2010PropOp51
 70
     0
102
RTVSPost2010Prop52
140
1.0
102
RTVSPost2010PropOp52
 70
     0
102
RTVSPost2010Prop53
 90
        2
102
RTVSPost2010PropOp53
 70
     1
102
RTVSPost2010Prop54
  1
strokes_ogs.tif
102
RTVSPost2010PropOp54
 70
     1
102
RTVSPost2010Prop55
280
     0
102
RTVSPost2010PropOp55
 70
     1
102
RTVSPost2010Prop56
140
1.0
102
RTVSPost2010PropOp56
 70
     1
102
RTVSPost2010Prop57
140
1.0
102
RTVSPost2010PropOp57
 70
     1
  0
XRECORD
  5
3BA5
102
{ACAD_REACTORS
330
3BA4
102
}
330
3BA4
100
AcDbXrecord
280
     1
102
RTVSPropertyOp0
 70
     1
102
RTVSPropertyOp1
 70
     1
102
RTVSPropertyOp2
 70
     1
102
RTVSPropertyOp3
 70
     1
102
RTVSPropertyOp4
 70
     1
102
RTVSPropertyOp5
 70
     1
102
RTVSPropertyOp6
 70
     1
102
RTVSPropertyOp7
 70
     1
102
RTVSPropertyOp8
 70
     1
102
RTVSPropertyOp9
 70
     1
102
RTVSPropertyOp10
 70
     1
102
RTVSPropertyOp11
 70
     1
102
RTVSPropertyOp12
 70
     1
102
RTVSPropertyOp13
 70
     1
102
RTVSPropertyOp14
 70
     1
102
RTVSPropertyOp15
 70
     1
102
RTVSPropertyOp16
 70
     1
102
RTVSPropertyOp17
 70
     1
102
RTVSPropertyOp18
 70
     1
102
RTVSPropertyOp19
 70
     1
102
RTVSPropertyOp20
 70
     1
102
RTVSPropertyOp21
 70
     1
102
RTVSPropertyOp22
 70
     1
102
RTVSPropertyOp23
 70
     1
102
RTVSPropertyOp24
 70
     1
102
RTVSPropertyOp25
 70
     1
102
RTVSPropertyOp26
 70
     1
102
RTVSPropertyOp27
 70
     1
102
RTVSPropertyOp28
 70
     1
102
RTVSPropertyOp29
 70
     1
102
RTVSPropertyOp30
 70
     1
102
RTVSPropertyOp31
 70
     1
102
RTVSPropertyOp32
 70
     1
102
RTVSPropertyOp33
 70
     1
102
RTVSPropertyOp34
 70
     1
102
RTVSPropertyOp35
 70
     1
102
RTVSPropertyOp36
 70
     1
102
RTVSPropertyOp37
 70
     1
102
RTVSPropertyOp38
 70
     1
102
RTVSPropertyOp39
 70
     1
102
RTVSPropertyOp40
 70
     1
102
RTVSPropertyOp41
 70
     1
102
RTVSPropertyOp42
 70
     1
102
RTVSPropertyOp43
 70
     1
102
RTVSPropertyOp44
 70
     1
102
RTVSPropertyOp45
 70
     1
102
RTVSPropertyOp46
 70
     1
102
RTVSPropertyOp47
 70
     1
102
RTVSPropertyOp48
 70
     1
102
RTVSPropertyOp49
 70
     1
102
RTVSPropertyOp50
 70
     1
102
RTVSPropertyOp51
 70
     0
102
RTVSPropertyOp52
 70
     0
102
RTVSPropertyOp53
 70
     1
102
RTVSPropertyOp54
 70
     1
102
RTVSPropertyOp55
 70
     1
102
RTVSPropertyOp56
 70
     1
102
RTVSPropertyOp57
 70
     1
102
RTVSPost2010Prop28
280
     0
102
RTVSPost2010PropOp28
 70
     1
102
RTVSPost2010Prop29
280
     1
102
RTVSPost2010PropOp29
 70
     1
102
RTVSPost2010Prop30
280
     1
102
RTVSPost2010PropOp30
 70
     1
102
RTVSPost2010Prop31
280
     0
102
RTVSPost2010PropOp31
 70
     1
102
RTVSPost2010Prop32
280
     0
102
RTVSPost2010PropOp32
 70
     1
102
RTVSPost2010Prop33
280
     0
102
RTVSPost2010PropOp33
 70
     1
102
RTVSPost2010Prop34
280
     0
102
RTVSPost2010PropOp34
 70
     1
102
RTVSPost2010Prop35
280
     0
102
RTVSPost2010PropOp35
 70
     1
102
RTVSPost2010Prop36
280
     0
102
RTVSPost2010PropOp36
 70
     1
102
RTVSPost2010Prop37
 90
       50
102
RTVSPost2010PropOp37
 70
     1
102
RTVSPost2010Prop38
140
0.0
102
RTVSPost2010PropOp38
 70
     1
102
RTVSPost2010Prop39
140
1.0
102
RTVSPost2010PropOp39
 70
     1
102
RTVSPost2010Prop40
 90
        0
102
RTVSPost2010PropOp40
 70
     1
102
RTVSPost2010Prop41ColorIndex
 90
       18
102
RTVSPost2010Prop41ColorRGB
 90
        0
102
RTVSPost2010PropOp41
 70
     1
102
RTVSPost2010Prop42
 90
       50
102
RTVSPost2010PropOp42
 70
     1
102
RTVSPost2010Prop43
 90
        3
102
RTVSPost2010PropOp43
 70
     1
102
RTVSPost2010Prop44ColorIndex
 90
        5
102
RTVSPost2010Prop44ColorRGB
 90
      255
102
RTVSPost2010PropOp44
 70
     1
102
RTVSPost2010Prop45
280
     0
102
RTVSPost2010PropOp45
 70
     1
102
RTVSPost2010Prop46
 90
       50
102
RTVSPost2010PropOp46
 70
     1
102
RTVSPost2010Prop47
 90
       50
102
RTVSPost2010PropOp47
 70
     1
102
RTVSPost2010Prop48
 90
       50
102
RTVSPost2010PropOp48
 70
     1
102
RTVSPost2010Prop49
280
     0
102
RTVSPost2010PropOp49
 70
     1
102
RTVSPost2010Prop50
 90
       50
102
RTVSPost2010PropOp50
 70
     1
102
RTVSPost2010Prop51ColorIndex
 90
      256
102
RTVSPost2010Prop51ColorRGB
 90
-16777216
102
RTVSPost2010PropOp51
 70
     0
102
RTVSPost2010Prop52
140
1.0
102
RTVSPost2010PropOp52
 70
     0
102
RTVSPost2010Prop53
 90
        2
102
RTVSPost2010PropOp53
 70
     1
102
RTVSPost2010Prop54
  1
strokes_ogs.tif
102
RTVSPost2010PropOp54
 70
     1
102
RTVSPost2010Prop55
280
     0
102
RTVSPost2010PropOp55
 70
     1
102
RTVSPost2010Prop56
140
1.0
102
RTVSPost2010PropOp56
 70
     1
102
RTVSPost2010Prop57
140
1.0
102
RTVSPost2010PropOp57
 70
     1
  0
XRECORD
  5
3BA7
102
{ACAD_REACTORS
330
3BA6
102
}
330
3BA6
100
AcDbXrecord
280
     1
102
RTVSPropertyOp0
 70
     1
102
RTVSPropertyOp1
 70
     1
102
RTVSPropertyOp2
 70
     1
102
RTVSPropertyOp3
 70
     1
102
RTVSPropertyOp4
 70
     1
102
RTVSPropertyOp5
 70
     1
102
RTVSPropertyOp6
 70
     1
102
RTVSPropertyOp7
 70
     1
102
RTVSPropertyOp8
 70
     1
102
RTVSPropertyOp9
 70
     1
102
RTVSPropertyOp10
 70
     1
102
RTVSPropertyOp11
 70
     1
102
RTVSPropertyOp12
 70
     1
102
RTVSPropertyOp13
 70
     1
102
RTVSPropertyOp14
 70
     1
102
RTVSPropertyOp15
 70
     1
102
RTVSPropertyOp16
 70
     1
102
RTVSPropertyOp17
 70
     1
102
RTVSPropertyOp18
 70
     1
102
RTVSPropertyOp19
 70
     1
102
RTVSPropertyOp20
 70
     1
102
RTVSPropertyOp21
 70
     1
102
RTVSPropertyOp22
 70
     1
102
RTVSPropertyOp23
 70
     1
102
RTVSPropertyOp24
 70
     1
102
RTVSPropertyOp25
 70
     1
102
RTVSPropertyOp26
 70
     1
102
RTVSPropertyOp27
 70
     1
102
RTVSPropertyOp28
 70
     1
102
RTVSPropertyOp29
 70
     1
102
RTVSPropertyOp30
 70
     1
102
RTVSPropertyOp31
 70
     1
102
RTVSPropertyOp32
 70
     1
102
RTVSPropertyOp33
 70
     1
102
RTVSPropertyOp34
 70
     1
102
RTVSPropertyOp35
 70
     1
102
RTVSPropertyOp36
 70
     1
102
RTVSPropertyOp37
 70
     1
102
RTVSPropertyOp38
 70
     1
102
RTVSPropertyOp39
 70
     1
102
RTVSPropertyOp40
 70
     1
102
RTVSPropertyOp41
 70
     1
102
RTVSPropertyOp42
 70
     1
102
RTVSPropertyOp43
 70
     1
102
RTVSPropertyOp44
 70
     1
102
RTVSPropertyOp45
 70
     1
102
RTVSPropertyOp46
 70
     1
102
RTVSPropertyOp47
 70
     1
102
RTVSPropertyOp48
 70
     1
102
RTVSPropertyOp49
 70
     1
102
RTVSPropertyOp50
 70
     1
102
RTVSPropertyOp51
 70
     0
102
RTVSPropertyOp52
 70
     0
102
RTVSPropertyOp53
 70
     1
102
RTVSPropertyOp54
 70
     1
102
RTVSPropertyOp55
 70
     1
102
RTVSPropertyOp56
 70
     1
102
RTVSPropertyOp57
 70
     1
102
RTVSPost2010Prop28
280
     0
102
RTVSPost2010PropOp28
 70
     1
102
RTVSPost2010Prop29
280
     1
102
RTVSPost2010PropOp29
 70
     1
102
RTVSPost2010Prop30
280
     1
102
RTVSPost2010PropOp30
 70
     1
102
RTVSPost2010Prop31
280
     0
102
RTVSPost2010PropOp31
 70
     1
102
RTVSPost2010Prop32
280
     0
102
RTVSPost2010PropOp32
 70
     1
102
RTVSPost2010Prop33
280
     0
102
RTVSPost2010PropOp33
 70
     1
102
RTVSPost2010Prop34
280
     0
102
RTVSPost2010PropOp34
 70
     1
102
RTVSPost2010Prop35
280
     0
102
RTVSPost2010PropOp35
 70
     1
102
RTVSPost2010Prop36
280
     0
102
RTVSPost2010PropOp36
 70
     1
102
RTVSPost2010Prop37
 90
       50
102
RTVSPost2010PropOp37
 70
     1
102
RTVSPost2010Prop38
140
0.0
102
RTVSPost2010PropOp38
 70
     1
102
RTVSPost2010Prop39
140
1.0
102
RTVSPost2010PropOp39
 70
     1
102
RTVSPost2010Prop40
 90
        0
102
RTVSPost2010PropOp40
 70
     1
102
RTVSPost2010Prop41ColorIndex
 90
       18
102
RTVSPost2010Prop41ColorRGB
 90
        0
102
RTVSPost2010PropOp41
 70
     1
102
RTVSPost2010Prop42
 90
       50
102
RTVSPost2010PropOp42
 70
     1
102
RTVSPost2010Prop43
 90
        3
102
RTVSPost2010PropOp43
 70
     1
102
RTVSPost2010Prop44ColorIndex
 90
        5
102
RTVSPost2010Prop44ColorRGB
 90
      255
102
RTVSPost2010PropOp44
 70
     1
102
RTVSPost2010Prop45
280
     0
102
RTVSPost2010PropOp45
 70
     1
102
RTVSPost2010Prop46
 90
       50
102
RTVSPost2010PropOp46
 70
     1
102
RTVSPost2010Prop47
 90
       50
102
RTVSPost2010PropOp47
 70
     1
102
RTVSPost2010Prop48
 90
       50
102
RTVSPost2010PropOp48
 70
     1
102
RTVSPost2010Prop49
280
     0
102
RTVSPost2010PropOp49
 70
     1
102
RTVSPost2010Prop50
 90
       50
102
RTVSPost2010PropOp50
 70
     1
102
RTVSPost2010Prop51ColorIndex
 90
      256
102
RTVSPost2010Prop51ColorRGB
 90
-16777216
102
RTVSPost2010PropOp51
 70
     0
102
RTVSPost2010Prop52
140
1.0
102
RTVSPost2010PropOp52
 70
     0
102
RTVSPost2010Prop53
 90
        2
102
RTVSPost2010PropOp53
 70
     1
102
RTVSPost2010Prop54
  1
strokes_ogs.tif
102
RTVSPost2010PropOp54
 70
     1
102
RTVSPost2010Prop55
280
     0
102
RTVSPost2010PropOp55
 70
     1
102
RTVSPost2010Prop56
140
1.0
102
RTVSPost2010PropOp56
 70
     1
102
RTVSPost2010Prop57
140
1.0
102
RTVSPost2010PropOp57
 70
     1
  0
XRECORD
  5
3BA9
102
{ACAD_REACTORS
330
3BA8
102
}
330
3BA8
100
AcDbXrecord
280
     1
102
RTVSPropertyOp0
 70
     1
102
RTVSPropertyOp1
 70
     1
102
RTVSPropertyOp2
 70
     1
102
RTVSPropertyOp3
 70
     1
102
RTVSPropertyOp4
 70
     1
102
RTVSPropertyOp5
 70
     1
102
RTVSPropertyOp6
 70
     1
102
RTVSPropertyOp7
 70
     1
102
RTVSPropertyOp8
 70
     1
102
RTVSPropertyOp9
 70
     1
102
RTVSPropertyOp10
 70
     1
102
RTVSPropertyOp11
 70
     1
102
RTVSPropertyOp12
 70
     1
102
RTVSPropertyOp13
 70
     1
102
RTVSPropertyOp14
 70
     1
102
RTVSPropertyOp15
 70
     1
102
RTVSPropertyOp16
 70
     1
102
RTVSPropertyOp17
 70
     1
102
RTVSPropertyOp18
 70
     1
102
RTVSPropertyOp19
 70
     1
102
RTVSPropertyOp20
 70
     1
102
RTVSPropertyOp21
 70
     1
102
RTVSPropertyOp22
 70
     1
102
RTVSPropertyOp23
 70
     1
102
RTVSPropertyOp24
 70
     1
102
RTVSPropertyOp25
 70
     1
102
RTVSPropertyOp26
 70
     1
102
RTVSPropertyOp27
 70
     1
102
RTVSPropertyOp28
 70
     1
102
RTVSPropertyOp29
 70
     1
102
RTVSPropertyOp30
 70
     1
102
RTVSPropertyOp31
 70
     1
102
RTVSPropertyOp32
 70
     1
102
RTVSPropertyOp33
 70
     1
102
RTVSPropertyOp34
 70
     1
102
RTVSPropertyOp35
 70
     1
102
RTVSPropertyOp36
 70
     1
102
RTVSPropertyOp37
 70
     1
102
RTVSPropertyOp38
 70
     1
102
RTVSPropertyOp39
 70
     1
102
RTVSPropertyOp40
 70
     1
102
RTVSPropertyOp41
 70
     1
102
RTVSPropertyOp42
 70
     1
102
RTVSPropertyOp43
 70
     1
102
RTVSPropertyOp44
 70
     1
102
RTVSPropertyOp45
 70
     1
102
RTVSPropertyOp46
 70
     1
102
RTVSPropertyOp47
 70
     1
102
RTVSPropertyOp48
 70
     1
102
RTVSPropertyOp49
 70
     1
102
RTVSPropertyOp50
 70
     1
102
RTVSPropertyOp51
 70
     0
102
RTVSPropertyOp52
 70
     0
102
RTVSPropertyOp53
 70
     1
102
RTVSPropertyOp54
 70
     1
102
RTVSPropertyOp55
 70
     1
102
RTVSPropertyOp56
 70
     1
102
RTVSPropertyOp57
 70
     1
102
RTVSPost2010Prop28
280
     0
102
RTVSPost2010PropOp28
 70
     1
102
RTVSPost2010Prop29
280
     1
102
RTVSPost2010PropOp29
 70
     1
102
RTVSPost2010Prop30
280
     1
102
RTVSPost2010PropOp30
 70
     1
102
RTVSPost2010Prop31
280
     0
102
RTVSPost2010PropOp31
 70
     1
102
RTVSPost2010Prop32
280
     0
102
RTVSPost2010PropOp32
 70
     1
102
RTVSPost2010Prop33
280
     0
102
RTVSPost2010PropOp33
 70
     1
102
RTVSPost2010Prop34
280
     0
102
RTVSPost2010PropOp34
 70
     1
102
RTVSPost2010Prop35
280
     0
102
RTVSPost2010PropOp35
 70
     1
102
RTVSPost2010Prop36
280
     0
102
RTVSPost2010PropOp36
 70
     1
102
RTVSPost2010Prop37
 90
       50
102
RTVSPost2010PropOp37
 70
     1
102
RTVSPost2010Prop38
140
0.0
102
RTVSPost2010PropOp38
 70
     1
102
RTVSPost2010Prop39
140
1.0
102
RTVSPost2010PropOp39
 70
     1
102
RTVSPost2010Prop40
 90
        0
102
RTVSPost2010PropOp40
 70
     1
102
RTVSPost2010Prop41ColorIndex
 90
       18
102
RTVSPost2010Prop41ColorRGB
 90
        0
102
RTVSPost2010PropOp41
 70
     1
102
RTVSPost2010Prop42
 90
       50
102
RTVSPost2010PropOp42
 70
     1
102
RTVSPost2010Prop43
 90
        3
102
RTVSPost2010PropOp43
 70
     1
102
RTVSPost2010Prop44ColorIndex
 90
        5
102
RTVSPost2010Prop44ColorRGB
 90
      255
102
RTVSPost2010PropOp44
 70
     1
102
RTVSPost2010Prop45
280
     0
102
RTVSPost2010PropOp45
 70
     1
102
RTVSPost2010Prop46
 90
       50
102
RTVSPost2010PropOp46
 70
     1
102
RTVSPost2010Prop47
 90
       50
102
RTVSPost2010PropOp47
 70
     1
102
RTVSPost2010Prop48
 90
       50
102
RTVSPost2010PropOp48
 70
     1
102
RTVSPost2010Prop49
280
     0
102
RTVSPost2010PropOp49
 70
     1
102
RTVSPost2010Prop50
 90
       50
102
RTVSPost2010PropOp50
 70
     1
102
RTVSPost2010Prop51ColorIndex
 90
      256
102
RTVSPost2010Prop51ColorRGB
 90
-16777216
102
RTVSPost2010PropOp51
 70
     0
102
RTVSPost2010Prop52
140
1.0
102
RTVSPost2010PropOp52
 70
     0
102
RTVSPost2010Prop53
 90
        2
102
RTVSPost2010PropOp53
 70
     1
102
RTVSPost2010Prop54
  1
strokes_ogs.tif
102
RTVSPost2010PropOp54
 70
     1
102
RTVSPost2010Prop55
280
     0
102
RTVSPost2010PropOp55
 70
     1
102
RTVSPost2010Prop56
140
1.0
102
RTVSPost2010PropOp56
 70
     1
102
RTVSPost2010Prop57
140
1.0
102
RTVSPost2010PropOp57
 70
     1
  0
XRECORD
  5
3BAB
102
{ACAD_REACTORS
330
3BAA
102
}
330
3BAA
100
AcDbXrecord
280
     1
102
RTVSPropertyOp0
 70
     1
102
RTVSPropertyOp1
 70
     1
102
RTVSPropertyOp2
 70
     1
102
RTVSPropertyOp3
 70
     1
102
RTVSPropertyOp4
 70
     1
102
RTVSPropertyOp5
 70
     1
102
RTVSPropertyOp6
 70
     1
102
RTVSPropertyOp7
 70
     1
102
RTVSPropertyOp8
 70
     1
102
RTVSPropertyOp9
 70
     1
102
RTVSPropertyOp10
 70
     1
102
RTVSPropertyOp11
 70
     1
102
RTVSPropertyOp12
 70
     1
102
RTVSPropertyOp13
 70
     1
102
RTVSPropertyOp14
 70
     1
102
RTVSPropertyOp15
 70
     1
102
RTVSPropertyOp16
 70
     1
102
RTVSPropertyOp17
 70
     1
102
RTVSPropertyOp18
 70
     1
102
RTVSPropertyOp19
 70
     1
102
RTVSPropertyOp20
 70
     1
102
RTVSPropertyOp21
 70
     1
102
RTVSPropertyOp22
 70
     1
102
RTVSPropertyOp23
 70
     1
102
RTVSPropertyOp24
 70
     1
102
RTVSPropertyOp25
 70
     1
102
RTVSPropertyOp26
 70
     1
102
RTVSPropertyOp27
 70
     1
102
RTVSPropertyOp28
 70
     1
102
RTVSPropertyOp29
 70
     1
102
RTVSPropertyOp30
 70
     1
102
RTVSPropertyOp31
 70
     1
102
RTVSPropertyOp32
 70
     1
102
RTVSPropertyOp33
 70
     1
102
RTVSPropertyOp34
 70
     1
102
RTVSPropertyOp35
 70
     1
102
RTVSPropertyOp36
 70
     1
102
RTVSPropertyOp37
 70
     1
102
RTVSPropertyOp38
 70
     1
102
RTVSPropertyOp39
 70
     1
102
RTVSPropertyOp40
 70
     1
102
RTVSPropertyOp41
 70
     1
102
RTVSPropertyOp42
 70
     1
102
RTVSPropertyOp43
 70
     1
102
RTVSPropertyOp44
 70
     1
102
RTVSPropertyOp45
 70
     1
102
RTVSPropertyOp46
 70
     1
102
RTVSPropertyOp47
 70
     1
102
RTVSPropertyOp48
 70
     1
102
RTVSPropertyOp49
 70
     1
102
RTVSPropertyOp50
 70
     1
102
RTVSPropertyOp51
 70
     0
102
RTVSPropertyOp52
 70
     0
102
RTVSPropertyOp53
 70
     1
102
RTVSPropertyOp54
 70
     1
102
RTVSPropertyOp55
 70
     1
102
RTVSPropertyOp56
 70
     1
102
RTVSPropertyOp57
 70
     1
102
RTVSPost2010Prop28
280
     0
102
RTVSPost2010PropOp28
 70
     1
102
RTVSPost2010Prop29
280
     1
102
RTVSPost2010PropOp29
 70
     1
102
RTVSPost2010Prop30
280
     1
102
RTVSPost2010PropOp30
 70
     1
102
RTVSPost2010Prop31
280
     0
102
RTVSPost2010PropOp31
 70
     1
102
RTVSPost2010Prop32
280
     0
102
RTVSPost2010PropOp32
 70
     1
102
RTVSPost2010Prop33
280
     0
102
RTVSPost2010PropOp33
 70
     1
102
RTVSPost2010Prop34
280
     0
102
RTVSPost2010PropOp34
 70
     1
102
RTVSPost2010Prop35
280
     0
102
RTVSPost2010PropOp35
 70
     1
102
RTVSPost2010Prop36
280
     0
102
RTVSPost2010PropOp36
 70
     1
102
RTVSPost2010Prop37
 90
       50
102
RTVSPost2010PropOp37
 70
     1
102
RTVSPost2010Prop38
140
0.0
102
RTVSPost2010PropOp38
 70
     1
102
RTVSPost2010Prop39
140
1.0
102
RTVSPost2010PropOp39
 70
     1
102
RTVSPost2010Prop40
 90
        0
102
RTVSPost2010PropOp40
 70
     1
102
RTVSPost2010Prop41ColorIndex
 90
       18
102
RTVSPost2010Prop41ColorRGB
 90
        0
102
RTVSPost2010PropOp41
 70
     1
102
RTVSPost2010Prop42
 90
       50
102
RTVSPost2010PropOp42
 70
     1
102
RTVSPost2010Prop43
 90
        3
102
RTVSPost2010PropOp43
 70
     1
102
RTVSPost2010Prop44ColorIndex
 90
        5
102
RTVSPost2010Prop44ColorRGB
 90
      255
102
RTVSPost2010PropOp44
 70
     1
102
RTVSPost2010Prop45
280
     0
102
RTVSPost2010PropOp45
 70
     1
102
RTVSPost2010Prop46
 90
       50
102
RTVSPost2010PropOp46
 70
     1
102
RTVSPost2010Prop47
 90
       50
102
RTVSPost2010PropOp47
 70
     1
102
RTVSPost2010Prop48
 90
       50
102
RTVSPost2010PropOp48
 70
     1
102
RTVSPost2010Prop49
280
     0
102
RTVSPost2010PropOp49
 70
     1
102
RTVSPost2010Prop50
 90
       50
102
RTVSPost2010PropOp50
 70
     1
102
RTVSPost2010Prop51ColorIndex
 90
      256
102
RTVSPost2010Prop51ColorRGB
 90
-16777216
102
RTVSPost2010PropOp51
 70
     0
102
RTVSPost2010Prop52
140
1.0
102
RTVSPost2010PropOp52
 70
     0
102
RTVSPost2010Prop53
 90
        2
102
RTVSPost2010PropOp53
 70
     1
102
RTVSPost2010Prop54
  1
strokes_ogs.tif
102
RTVSPost2010PropOp54
 70
     1
102
RTVSPost2010Prop55
280
     0
102
RTVSPost2010PropOp55
 70
     1
102
RTVSPost2010Prop56
140
1.0
102
RTVSPost2010PropOp56
 70
     1
102
RTVSPost2010Prop57
140
1.0
102
RTVSPost2010PropOp57
 70
     1
  0
XRECORD
  5
3BB1
102
{ACAD_REACTORS
330
3BB0
102
}
330
3BB0
100
AcDbXrecord
280
     1
102
RTVSPropertyOp0
 70
     1
102
RTVSPropertyOp1
 70
     1
102
RTVSPropertyOp2
 70
     1
102
RTVSPropertyOp3
 70
     1
102
RTVSPropertyOp4
 70
     1
102
RTVSPropertyOp5
 70
     1
102
RTVSPropertyOp6
 70
     1
102
RTVSPropertyOp7
 70
     1
102
RTVSPropertyOp8
 70
     1
102
RTVSPropertyOp9
 70
     1
102
RTVSPropertyOp10
 70
     1
102
RTVSPropertyOp11
 70
     1
102
RTVSPropertyOp12
 70
     1
102
RTVSPropertyOp13
 70
     1
102
RTVSPropertyOp14
 70
     1
102
RTVSPropertyOp15
 70
     1
102
RTVSPropertyOp16
 70
     1
102
RTVSPropertyOp17
 70
     1
102
RTVSPropertyOp18
 70
     1
102
RTVSPropertyOp19
 70
     1
102
RTVSPropertyOp20
 70
     1
102
RTVSPropertyOp21
 70
     1
102
RTVSPropertyOp22
 70
     1
102
RTVSPropertyOp23
 70
     1
102
RTVSPropertyOp24
 70
     1
102
RTVSPropertyOp25
 70
     1
102
RTVSPropertyOp26
 70
     1
102
RTVSPropertyOp27
 70
     1
102
RTVSPropertyOp28
 70
     1
102
RTVSPropertyOp29
 70
     1
102
RTVSPropertyOp30
 70
     1
102
RTVSPropertyOp31
 70
     1
102
RTVSPropertyOp32
 70
     1
102
RTVSPropertyOp33
 70
     1
102
RTVSPropertyOp34
 70
     1
102
RTVSPropertyOp35
 70
     1
102
RTVSPropertyOp36
 70
     1
102
RTVSPropertyOp37
 70
     1
102
RTVSPropertyOp38
 70
     1
102
RTVSPropertyOp39
 70
     1
102
RTVSPropertyOp40
 70
     1
102
RTVSPropertyOp41
 70
     1
102
RTVSPropertyOp42
 70
     1
102
RTVSPropertyOp43
 70
     1
102
RTVSPropertyOp44
 70
     1
102
RTVSPropertyOp45
 70
     1
102
RTVSPropertyOp46
 70
     1
102
RTVSPropertyOp47
 70
     1
102
RTVSPropertyOp48
 70
     1
102
RTVSPropertyOp49
 70
     1
102
RTVSPropertyOp50
 70
     1
102
RTVSPropertyOp51
 70
     0
102
RTVSPropertyOp52
 70
     0
102
RTVSPropertyOp53
 70
     1
102
RTVSPropertyOp54
 70
     1
102
RTVSPropertyOp55
 70
     1
102
RTVSPropertyOp56
 70
     1
102
RTVSPropertyOp57
 70
     1
102
RTVSPost2010Prop28
280
     0
102
RTVSPost2010PropOp28
 70
     1
102
RTVSPost2010Prop29
280
     1
102
RTVSPost2010PropOp29
 70
     1
102
RTVSPost2010Prop30
280
     1
102
RTVSPost2010PropOp30
 70
     1
102
RTVSPost2010Prop31
280
     0
102
RTVSPost2010PropOp31
 70
     1
102
RTVSPost2010Prop32
280
     0
102
RTVSPost2010PropOp32
 70
     1
102
RTVSPost2010Prop33
280
     0
102
RTVSPost2010PropOp33
 70
     1
102
RTVSPost2010Prop34
280
     0
102
RTVSPost2010PropOp34
 70
     1
102
RTVSPost2010Prop35
280
     0
102
RTVSPost2010PropOp35
 70
     1
102
RTVSPost2010Prop36
280
     0
102
RTVSPost2010PropOp36
 70
     1
102
RTVSPost2010Prop37
 90
       50
102
RTVSPost2010PropOp37
 70
     1
102
RTVSPost2010Prop38
140
0.0
102
RTVSPost2010PropOp38
 70
     1
102
RTVSPost2010Prop39
140
1.0
102
RTVSPost2010PropOp39
 70
     1
102
RTVSPost2010Prop40
 90
        0
102
RTVSPost2010PropOp40
 70
     1
102
RTVSPost2010Prop41ColorIndex
 90
       18
102
RTVSPost2010Prop41ColorRGB
 90
        0
102
RTVSPost2010PropOp41
 70
     1
102
RTVSPost2010Prop42
 90
       50
102
RTVSPost2010PropOp42
 70
     1
102
RTVSPost2010Prop43
 90
        3
102
RTVSPost2010PropOp43
 70
     1
102
RTVSPost2010Prop44ColorIndex
 90
        5
102
RTVSPost2010Prop44ColorRGB
 90
      255
102
RTVSPost2010PropOp44
 70
     1
102
RTVSPost2010Prop45
280
     0
102
RTVSPost2010PropOp45
 70
     1
102
RTVSPost2010Prop46
 90
       50
102
RTVSPost2010PropOp46
 70
     1
102
RTVSPost2010Prop47
 90
       50
102
RTVSPost2010PropOp47
 70
     1
102
RTVSPost2010Prop48
 90
       50
102
RTVSPost2010PropOp48
 70
     1
102
RTVSPost2010Prop49
280
     0
102
RTVSPost2010PropOp49
 70
     1
102
RTVSPost2010Prop50
 90
       50
102
RTVSPost2010PropOp50
 70
     1
102
RTVSPost2010Prop51ColorIndex
 90
      256
102
RTVSPost2010Prop51ColorRGB
 90
-16777216
102
RTVSPost2010PropOp51
 70
     0
102
RTVSPost2010Prop52
140
1.0
102
RTVSPost2010PropOp52
 70
     0
102
RTVSPost2010Prop53
 90
        2
102
RTVSPost2010PropOp53
 70
     1
102
RTVSPost2010Prop54
  1
strokes_ogs.tif
102
RTVSPost2010PropOp54
 70
     1
102
RTVSPost2010Prop55
280
     0
102
RTVSPost2010PropOp55
 70
     1
102
RTVSPost2010Prop56
140
1.0
102
RTVSPost2010PropOp56
 70
     1
102
RTVSPost2010Prop57
140
1.0
102
RTVSPost2010PropOp57
 70
     1
  0
XRECORD
  5
3BC5
102
{ACAD_REACTORS
330
3BC4
102
}
330
3BC4
100
AcDbXrecord
280
     1
102
RTVSPropertyOp0
 70
     0
102
RTVSPropertyOp1
 70
     0
102
RTVSPropertyOp2
 70
     0
102
RTVSPropertyOp3
 70
     0
102
RTVSPropertyOp4
 70
     0
102
RTVSPropertyOp5
 70
     0
102
RTVSPropertyOp6
 70
     0
102
RTVSPropertyOp7
 70
     0
102
RTVSPropertyOp8
 70
     0
102
RTVSPropertyOp9
 70
     0
102
RTVSPropertyOp10
 70
     0
102
RTVSPropertyOp11
 70
     0
102
RTVSPropertyOp12
 70
     0
102
RTVSPropertyOp13
 70
     0
102
RTVSPropertyOp14
 70
     2
102
RTVSPropertyOp15
 70
     0
102
RTVSPropertyOp16
 70
     0
102
RTVSPropertyOp17
 70
     0
102
RTVSPropertyOp18
 70
     0
102
RTVSPropertyOp19
 70
     0
102
RTVSPropertyOp20
 70
     0
102
RTVSPropertyOp21
 70
     0
102
RTVSPropertyOp22
 70
     0
102
RTVSPropertyOp23
 70
     0
102
RTVSPropertyOp24
 70
     0
102
RTVSPropertyOp25
 70
     0
102
RTVSPropertyOp26
 70
     0
102
RTVSPropertyOp27
 70
     0
102
RTVSPropertyOp28
 70
     0
102
RTVSPropertyOp29
 70
     0
102
RTVSPropertyOp30
 70
     0
102
RTVSPropertyOp31
 70
     0
102
RTVSPropertyOp32
 70
     0
102
RTVSPropertyOp33
 70
     0
102
RTVSPropertyOp34
 70
     0
102
RTVSPropertyOp35
 70
     0
102
RTVSPropertyOp36
 70
     0
102
RTVSPropertyOp37
 70
     0
102
RTVSPropertyOp38
 70
     0
102
RTVSPropertyOp39
 70
     0
102
RTVSPropertyOp40
 70
     0
102
RTVSPropertyOp41
 70
     0
102
RTVSPropertyOp42
 70
     0
102
RTVSPropertyOp43
 70
     0
102
RTVSPropertyOp44
 70
     0
102
RTVSPropertyOp45
 70
     0
102
RTVSPropertyOp46
 70
     0
102
RTVSPropertyOp47
 70
     0
102
RTVSPropertyOp48
 70
     0
102
RTVSPropertyOp49
 70
     0
102
RTVSPropertyOp50
 70
     0
102
RTVSPropertyOp51
 70
     0
102
RTVSPropertyOp52
 70
     0
102
RTVSPropertyOp53
 70
     0
102
RTVSPropertyOp54
 70
     0
102
RTVSPropertyOp55
 70
     0
102
RTVSPropertyOp56
 70
     0
102
RTVSPropertyOp57
 70
     0
102
RTVSPost2010Prop28
280
     0
102
RTVSPost2010PropOp28
 70
     0
102
RTVSPost2010Prop29
280
     1
102
RTVSPost2010PropOp29
 70
     0
102
RTVSPost2010Prop30
280
     1
102
RTVSPost2010PropOp30
 70
     0
102
RTVSPost2010Prop31
280
     0
102
RTVSPost2010PropOp31
 70
     0
102
RTVSPost2010Prop32
280
     0
102
RTVSPost2010PropOp32
 70
     0
102
RTVSPost2010Prop33
280
     0
102
RTVSPost2010PropOp33
 70
     0
102
RTVSPost2010Prop34
280
     0
102
RTVSPost2010PropOp34
 70
     0
102
RTVSPost2010Prop35
280
     0
102
RTVSPost2010PropOp35
 70
     0
102
RTVSPost2010Prop36
280
     0
102
RTVSPost2010PropOp36
 70
     0
102
RTVSPost2010Prop37
 90
       50
102
RTVSPost2010PropOp37
 70
     0
102
RTVSPost2010Prop38
140
0.0
102
RTVSPost2010PropOp38
 70
     0
102
RTVSPost2010Prop39
140
1.0
102
RTVSPost2010PropOp39
 70
     0
102
RTVSPost2010Prop40
 90
        0
102
RTVSPost2010PropOp40
 70
     0
102
RTVSPost2010Prop41ColorIndex
 90
       18
102
RTVSPost2010Prop41ColorRGB
 90
        0
102
RTVSPost2010PropOp41
 70
     0
102
RTVSPost2010Prop42
 90
       50
102
RTVSPost2010PropOp42
 70
     0
102
RTVSPost2010Prop43
 90
        3
102
RTVSPost2010PropOp43
 70
     0
102
RTVSPost2010Prop44ColorIndex
 90
        5
102
RTVSPost2010Prop44ColorRGB
 90
      255
102
RTVSPost2010PropOp44
 70
     0
102
RTVSPost2010Prop45
280
     0
102
RTVSPost2010PropOp45
 70
     0
102
RTVSPost2010Prop46
 90
       50
102
RTVSPost2010PropOp46
 70
     0
102
RTVSPost2010Prop47
 90
       50
102
RTVSPost2010PropOp47
 70
     0
102
RTVSPost2010Prop48
 90
       50
102
RTVSPost2010PropOp48
 70
     0
102
RTVSPost2010Prop49
280
     0
102
RTVSPost2010PropOp49
 70
     0
102
RTVSPost2010Prop50
 90
       50
102
RTVSPost2010PropOp50
 70
     0
102
RTVSPost2010Prop51ColorIndex
 90
      256
102
RTVSPost2010Prop51ColorRGB
 90
-16777216
102
RTVSPost2010PropOp51
 70
     0
102
RTVSPost2010Prop52
140
1.0
102
RTVSPost2010PropOp52
 70
     0
102
RTVSPost2010Prop53
 90
        2
102
RTVSPost2010PropOp53
 70
     0
102
RTVSPost2010Prop54
  1
strokes_ogs.tif
102
RTVSPost2010PropOp54
 70
     0
102
RTVSPost2010Prop55
280
     0
102
RTVSPost2010PropOp55
 70
     0
102
RTVSPost2010Prop56
140
1.0
102
RTVSPost2010PropOp56
 70
     0
102
RTVSPost2010Prop57
140
1.0
102
RTVSPost2010PropOp57
 70
     0
  0
XRECORD
  5
3BBF
102
{ACAD_REACTORS
330
3BBE
102
}
330
3BBE
100
AcDbXrecord
280
     1
102
RTVSPropertyOp0
 70
     1
102
RTVSPropertyOp1
 70
     1
102
RTVSPropertyOp2
 70
     1
102
RTVSPropertyOp3
 70
     1
102
RTVSPropertyOp4
 70
     1
102
RTVSPropertyOp5
 70
     1
102
RTVSPropertyOp6
 70
     1
102
RTVSPropertyOp7
 70
     1
102
RTVSPropertyOp8
 70
     1
102
RTVSPropertyOp9
 70
     1
102
RTVSPropertyOp10
 70
     1
102
RTVSPropertyOp11
 70
     1
102
RTVSPropertyOp12
 70
     1
102
RTVSPropertyOp13
 70
     1
102
RTVSPropertyOp14
 70
     1
102
RTVSPropertyOp15
 70
     1
102
RTVSPropertyOp16
 70
     1
102
RTVSPropertyOp17
 70
     1
102
RTVSPropertyOp18
 70
     1
102
RTVSPropertyOp19
 70
     1
102
RTVSPropertyOp20
 70
     1
102
RTVSPropertyOp21
 70
     1
102
RTVSPropertyOp22
 70
     1
102
RTVSPropertyOp23
 70
     1
102
RTVSPropertyOp24
 70
     1
102
RTVSPropertyOp25
 70
     1
102
RTVSPropertyOp26
 70
     1
102
RTVSPropertyOp27
 70
     1
102
RTVSPropertyOp28
 70
     1
102
RTVSPropertyOp29
 70
     1
102
RTVSPropertyOp30
 70
     1
102
RTVSPropertyOp31
 70
     1
102
RTVSPropertyOp32
 70
     1
102
RTVSPropertyOp33
 70
     1
102
RTVSPropertyOp34
 70
     1
102
RTVSPropertyOp35
 70
     1
102
RTVSPropertyOp36
 70
     1
102
RTVSPropertyOp37
 70
     1
102
RTVSPropertyOp38
 70
     1
102
RTVSPropertyOp39
 70
     1
102
RTVSPropertyOp40
 70
     1
102
RTVSPropertyOp41
 70
     1
102
RTVSPropertyOp42
 70
     1
102
RTVSPropertyOp43
 70
     1
102
RTVSPropertyOp44
 70
     1
102
RTVSPropertyOp45
 70
     1
102
RTVSPropertyOp46
 70
     1
102
RTVSPropertyOp47
 70
     1
102
RTVSPropertyOp48
 70
     1
102
RTVSPropertyOp49
 70
     1
102
RTVSPropertyOp50
 70
     1
102
RTVSPropertyOp51
 70
     0
102
RTVSPropertyOp52
 70
     0
102
RTVSPropertyOp53
 70
     1
102
RTVSPropertyOp54
 70
     1
102
RTVSPropertyOp55
 70
     1
102
RTVSPropertyOp56
 70
     1
102
RTVSPropertyOp57
 70
     1
102
RTVSPost2010Prop28
280
     0
102
RTVSPost2010PropOp28
 70
     1
102
RTVSPost2010Prop29
280
     1
102
RTVSPost2010PropOp29
 70
     1
102
RTVSPost2010Prop30
280
     1
102
RTVSPost2010PropOp30
 70
     1
102
RTVSPost2010Prop31
280
     0
102
RTVSPost2010PropOp31
 70
     1
102
RTVSPost2010Prop32
280
     0
102
RTVSPost2010PropOp32
 70
     1
102
RTVSPost2010Prop33
280
     0
102
RTVSPost2010PropOp33
 70
     1
102
RTVSPost2010Prop34
280
     0
102
RTVSPost2010PropOp34
 70
     1
102
RTVSPost2010Prop35
280
     0
102
RTVSPost2010PropOp35
 70
     1
102
RTVSPost2010Prop36
280
     0
102
RTVSPost2010PropOp36
 70
     1
102
RTVSPost2010Prop37
 90
       50
102
RTVSPost2010PropOp37
 70
     1
102
RTVSPost2010Prop38
140
0.0
102
RTVSPost2010PropOp38
 70
     1
102
RTVSPost2010Prop39
140
1.0
102
RTVSPost2010PropOp39
 70
     1
102
RTVSPost2010Prop40
 90
        0
102
RTVSPost2010PropOp40
 70
     1
102
RTVSPost2010Prop41ColorIndex
 90
       18
102
RTVSPost2010Prop41ColorRGB
 90
        0
102
RTVSPost2010PropOp41
 70
     1
102
RTVSPost2010Prop42
 90
       50
102
RTVSPost2010PropOp42
 70
     1
102
RTVSPost2010Prop43
 90
        3
102
RTVSPost2010PropOp43
 70
     1
102
RTVSPost2010Prop44ColorIndex
 90
        5
102
RTVSPost2010Prop44ColorRGB
 90
      255
102
RTVSPost2010PropOp44
 70
     1
102
RTVSPost2010Prop45
280
     0
102
RTVSPost2010PropOp45
 70
     1
102
RTVSPost2010Prop46
 90
       50
102
RTVSPost2010PropOp46
 70
     1
102
RTVSPost2010Prop47
 90
       50
102
RTVSPost2010PropOp47
 70
     1
102
RTVSPost2010Prop48
 90
       50
102
RTVSPost2010PropOp48
 70
     1
102
RTVSPost2010Prop49
280
     0
102
RTVSPost2010PropOp49
 70
     1
102
RTVSPost2010Prop50
 90
       50
102
RTVSPost2010PropOp50
 70
     1
102
RTVSPost2010Prop51ColorIndex
 90
      256
102
RTVSPost2010Prop51ColorRGB
 90
-16777216
102
RTVSPost2010PropOp51
 70
     0
102
RTVSPost2010Prop52
140
1.0
102
RTVSPost2010PropOp52
 70
     0
102
RTVSPost2010Prop53
 90
        2
102
RTVSPost2010PropOp53
 70
     1
102
RTVSPost2010Prop54
  1
strokes_ogs.tif
102
RTVSPost2010PropOp54
 70
     1
102
RTVSPost2010Prop55
280
     0
102
RTVSPost2010PropOp55
 70
     1
102
RTVSPost2010Prop56
140
1.0
102
RTVSPost2010PropOp56
 70
     1
102
RTVSPost2010Prop57
140
1.0
102
RTVSPost2010PropOp57
 70
     1
  0
XRECORD
  5
3BC7
102
{ACAD_REACTORS
330
3BC6
102
}
330
3BC6
100
AcDbXrecord
280
     1
102
RTVSPropertyOp0
 70
     0
102
RTVSPropertyOp1
 70
     0
102
RTVSPropertyOp2
 70
     0
102
RTVSPropertyOp3
 70
     0
102
RTVSPropertyOp4
 70
     0
102
RTVSPropertyOp5
 70
     0
102
RTVSPropertyOp6
 70
     0
102
RTVSPropertyOp7
 70
     0
102
RTVSPropertyOp8
 70
     0
102
RTVSPropertyOp9
 70
     0
102
RTVSPropertyOp10
 70
     0
102
RTVSPropertyOp11
 70
     0
102
RTVSPropertyOp12
 70
     0
102
RTVSPropertyOp13
 70
     0
102
RTVSPropertyOp14
 70
     2
102
RTVSPropertyOp15
 70
     0
102
RTVSPropertyOp16
 70
     0
102
RTVSPropertyOp17
 70
     0
102
RTVSPropertyOp18
 70
     0
102
RTVSPropertyOp19
 70
     0
102
RTVSPropertyOp20
 70
     0
102
RTVSPropertyOp21
 70
     0
102
RTVSPropertyOp22
 70
     0
102
RTVSPropertyOp23
 70
     0
102
RTVSPropertyOp24
 70
     0
102
RTVSPropertyOp25
 70
     0
102
RTVSPropertyOp26
 70
     0
102
RTVSPropertyOp27
 70
     0
102
RTVSPropertyOp28
 70
     0
102
RTVSPropertyOp29
 70
     0
102
RTVSPropertyOp30
 70
     0
102
RTVSPropertyOp31
 70
     0
102
RTVSPropertyOp32
 70
     0
102
RTVSPropertyOp33
 70
     0
102
RTVSPropertyOp34
 70
     0
102
RTVSPropertyOp35
 70
     0
102
RTVSPropertyOp36
 70
     0
102
RTVSPropertyOp37
 70
     0
102
RTVSPropertyOp38
 70
     0
102
RTVSPropertyOp39
 70
     0
102
RTVSPropertyOp40
 70
     0
102
RTVSPropertyOp41
 70
     0
102
RTVSPropertyOp42
 70
     0
102
RTVSPropertyOp43
 70
     0
102
RTVSPropertyOp44
 70
     0
102
RTVSPropertyOp45
 70
     0
102
RTVSPropertyOp46
 70
     0
102
RTVSPropertyOp47
 70
     0
102
RTVSPropertyOp48
 70
     0
102
RTVSPropertyOp49
 70
     0
102
RTVSPropertyOp50
 70
     0
102
RTVSPropertyOp51
 70
     0
102
RTVSPropertyOp52
 70
     0
102
RTVSPropertyOp53
 70
     0
102
RTVSPropertyOp54
 70
     0
102
RTVSPropertyOp55
 70
     0
102
RTVSPropertyOp56
 70
     0
102
RTVSPropertyOp57
 70
     0
102
RTVSPost2010Prop28
280
     0
102
RTVSPost2010PropOp28
 70
     0
102
RTVSPost2010Prop29
280
     1
102
RTVSPost2010PropOp29
 70
     0
102
RTVSPost2010Prop30
280
     1
102
RTVSPost2010PropOp30
 70
     0
102
RTVSPost2010Prop31
280
     0
102
RTVSPost2010PropOp31
 70
     0
102
RTVSPost2010Prop32
280
     0
102
RTVSPost2010PropOp32
 70
     0
102
RTVSPost2010Prop33
280
     0
102
RTVSPost2010PropOp33
 70
     0
102
RTVSPost2010Prop34
280
     0
102
RTVSPost2010PropOp34
 70
     0
102
RTVSPost2010Prop35
280
     0
102
RTVSPost2010PropOp35
 70
     0
102
RTVSPost2010Prop36
280
     0
102
RTVSPost2010PropOp36
 70
     0
102
RTVSPost2010Prop37
 90
       50
102
RTVSPost2010PropOp37
 70
     0
102
RTVSPost2010Prop38
140
0.0
102
RTVSPost2010PropOp38
 70
     0
102
RTVSPost2010Prop39
140
1.0
102
RTVSPost2010PropOp39
 70
     0
102
RTVSPost2010Prop40
 90
        0
102
RTVSPost2010PropOp40
 70
     0
102
RTVSPost2010Prop41ColorIndex
 90
       18
102
RTVSPost2010Prop41ColorRGB
 90
        0
102
RTVSPost2010PropOp41
 70
     0
102
RTVSPost2010Prop42
 90
       50
102
RTVSPost2010PropOp42
 70
     0
102
RTVSPost2010Prop43
 90
        3
102
RTVSPost2010PropOp43
 70
     0
102
RTVSPost2010Prop44ColorIndex
 90
        5
102
RTVSPost2010Prop44ColorRGB
 90
      255
102
RTVSPost2010PropOp44
 70
     0
102
RTVSPost2010Prop45
280
     0
102
RTVSPost2010PropOp45
 70
     0
102
RTVSPost2010Prop46
 90
       50
102
RTVSPost2010PropOp46
 70
     0
102
RTVSPost2010Prop47
 90
       50
102
RTVSPost2010PropOp47
 70
     0
102
RTVSPost2010Prop48
 90
       50
102
RTVSPost2010PropOp48
 70
     0
102
RTVSPost2010Prop49
280
     0
102
RTVSPost2010PropOp49
 70
     0
102
RTVSPost2010Prop50
 90
       50
102
RTVSPost2010PropOp50
 70
     0
102
RTVSPost2010Prop51ColorIndex
 90
      256
102
RTVSPost2010Prop51ColorRGB
 90
-16777216
102
RTVSPost2010PropOp51
 70
     0
102
RTVSPost2010Prop52
140
1.0
102
RTVSPost2010PropOp52
 70
     0
102
RTVSPost2010Prop53
 90
        2
102
RTVSPost2010PropOp53
 70
     0
102
RTVSPost2010Prop54
  1
strokes_ogs.tif
102
RTVSPost2010PropOp54
 70
     0
102
RTVSPost2010Prop55
280
     0
102
RTVSPost2010PropOp55
 70
     0
102
RTVSPost2010Prop56
140
1.0
102
RTVSPost2010PropOp56
 70
     0
102
RTVSPost2010Prop57
140
1.0
102
RTVSPost2010PropOp57
 70
     0
  0
XRECORD
  5
3BB5
102
{ACAD_REACTORS
330
3BB4
102
}
330
3BB4
100
AcDbXrecord
280
     1
102
RTVSPropertyOp0
 70
     1
102
RTVSPropertyOp1
 70
     1
102
RTVSPropertyOp2
 70
     1
102
RTVSPropertyOp3
 70
     1
102
RTVSPropertyOp4
 70
     1
102
RTVSPropertyOp5
 70
     1
102
RTVSPropertyOp6
 70
     1
102
RTVSPropertyOp7
 70
     1
102
RTVSPropertyOp8
 70
     1
102
RTVSPropertyOp9
 70
     1
102
RTVSPropertyOp10
 70
     1
102
RTVSPropertyOp11
 70
     1
102
RTVSPropertyOp12
 70
     1
102
RTVSPropertyOp13
 70
     1
102
RTVSPropertyOp14
 70
     1
102
RTVSPropertyOp15
 70
     1
102
RTVSPropertyOp16
 70
     1
102
RTVSPropertyOp17
 70
     1
102
RTVSPropertyOp18
 70
     1
102
RTVSPropertyOp19
 70
     1
102
RTVSPropertyOp20
 70
     1
102
RTVSPropertyOp21
 70
     1
102
RTVSPropertyOp22
 70
     1
102
RTVSPropertyOp23
 70
     1
102
RTVSPropertyOp24
 70
     1
102
RTVSPropertyOp25
 70
     1
102
RTVSPropertyOp26
 70
     1
102
RTVSPropertyOp27
 70
     1
102
RTVSPropertyOp28
 70
     1
102
RTVSPropertyOp29
 70
     1
102
RTVSPropertyOp30
 70
     1
102
RTVSPropertyOp31
 70
     1
102
RTVSPropertyOp32
 70
     1
102
RTVSPropertyOp33
 70
     1
102
RTVSPropertyOp34
 70
     1
102
RTVSPropertyOp35
 70
     1
102
RTVSPropertyOp36
 70
     1
102
RTVSPropertyOp37
 70
     1
102
RTVSPropertyOp38
 70
     1
102
RTVSPropertyOp39
 70
     1
102
RTVSPropertyOp40
 70
     1
102
RTVSPropertyOp41
 70
     1
102
RTVSPropertyOp42
 70
     1
102
RTVSPropertyOp43
 70
     1
102
RTVSPropertyOp44
 70
     1
102
RTVSPropertyOp45
 70
     1
102
RTVSPropertyOp46
 70
     1
102
RTVSPropertyOp47
 70
     1
102
RTVSPropertyOp48
 70
     1
102
RTVSPropertyOp49
 70
     1
102
RTVSPropertyOp50
 70
     1
102
RTVSPropertyOp51
 70
     0
102
RTVSPropertyOp52
 70
     0
102
RTVSPropertyOp53
 70
     1
102
RTVSPropertyOp54
 70
     1
102
RTVSPropertyOp55
 70
     1
102
RTVSPropertyOp56
 70
     1
102
RTVSPropertyOp57
 70
     1
102
RTVSPost2010Prop28
280
     0
102
RTVSPost2010PropOp28
 70
     1
102
RTVSPost2010Prop29
280
     1
102
RTVSPost2010PropOp29
 70
     1
102
RTVSPost2010Prop30
280
     1
102
RTVSPost2010PropOp30
 70
     1
102
RTVSPost2010Prop31
280
     0
102
RTVSPost2010PropOp31
 70
     1
102
RTVSPost2010Prop32
280
     0
102
RTVSPost2010PropOp32
 70
     1
102
RTVSPost2010Prop33
280
     0
102
RTVSPost2010PropOp33
 70
     1
102
RTVSPost2010Prop34
280
     0
102
RTVSPost2010PropOp34
 70
     1
102
RTVSPost2010Prop35
280
     0
102
RTVSPost2010PropOp35
 70
     1
102
RTVSPost2010Prop36
280
     0
102
RTVSPost2010PropOp36
 70
     1
102
RTVSPost2010Prop37
 90
       50
102
RTVSPost2010PropOp37
 70
     1
102
RTVSPost2010Prop38
140
0.0
102
RTVSPost2010PropOp38
 70
     1
102
RTVSPost2010Prop39
140
1.0
102
RTVSPost2010PropOp39
 70
     1
102
RTVSPost2010Prop40
 90
        0
102
RTVSPost2010PropOp40
 70
     1
102
RTVSPost2010Prop41ColorIndex
 90
       18
102
RTVSPost2010Prop41ColorRGB
 90
        0
102
RTVSPost2010PropOp41
 70
     1
102
RTVSPost2010Prop42
 90
       50
102
RTVSPost2010PropOp42
 70
     1
102
RTVSPost2010Prop43
 90
        3
102
RTVSPost2010PropOp43
 70
     1
102
RTVSPost2010Prop44ColorIndex
 90
        5
102
RTVSPost2010Prop44ColorRGB
 90
      255
102
RTVSPost2010PropOp44
 70
     1
102
RTVSPost2010Prop45
280
     0
102
RTVSPost2010PropOp45
 70
     1
102
RTVSPost2010Prop46
 90
       50
102
RTVSPost2010PropOp46
 70
     1
102
RTVSPost2010Prop47
 90
       50
102
RTVSPost2010PropOp47
 70
     1
102
RTVSPost2010Prop48
 90
       50
102
RTVSPost2010PropOp48
 70
     1
102
RTVSPost2010Prop49
280
     0
102
RTVSPost2010PropOp49
 70
     1
102
RTVSPost2010Prop50
 90
       50
102
RTVSPost2010PropOp50
 70
     1
102
RTVSPost2010Prop51ColorIndex
 90
      256
102
RTVSPost2010Prop51ColorRGB
 90
-16777216
102
RTVSPost2010PropOp51
 70
     0
102
RTVSPost2010Prop52
140
1.0
102
RTVSPost2010PropOp52
 70
     0
102
RTVSPost2010Prop53
 90
        2
102
RTVSPost2010PropOp53
 70
     1
102
RTVSPost2010Prop54
  1
strokes_ogs.tif
102
RTVSPost2010PropOp54
 70
     1
102
RTVSPost2010Prop55
280
     0
102
RTVSPost2010PropOp55
 70
     1
102
RTVSPost2010Prop56
140
1.0
102
RTVSPost2010PropOp56
 70
     1
102
RTVSPost2010Prop57
140
1.0
102
RTVSPost2010PropOp57
 70
     1
  0
XRECORD
  5
3BD3
102
{ACAD_REACTORS
330
3BD2
102
}
330
3BD2
100
AcDbXrecord
280
     1
102
RTVSPropertyOp0
 70
     1
102
RTVSPropertyOp1
 70
     1
102
RTVSPropertyOp2
 70
     1
102
RTVSPropertyOp3
 70
     1
102
RTVSPropertyOp4
 70
     1
102
RTVSPropertyOp5
 70
     1
102
RTVSPropertyOp6
 70
     1
102
RTVSPropertyOp7
 70
     1
102
RTVSPropertyOp8
 70
     1
102
RTVSPropertyOp9
 70
     1
102
RTVSPropertyOp10
 70
     1
102
RTVSPropertyOp11
 70
     1
102
RTVSPropertyOp12
 70
     1
102
RTVSPropertyOp13
 70
     1
102
RTVSPropertyOp14
 70
     1
102
RTVSPropertyOp15
 70
     1
102
RTVSPropertyOp16
 70
     1
102
RTVSPropertyOp17
 70
     1
102
RTVSPropertyOp18
 70
     1
102
RTVSPropertyOp19
 70
     1
102
RTVSPropertyOp20
 70
     1
102
RTVSPropertyOp21
 70
     1
102
RTVSPropertyOp22
 70
     1
102
RTVSPropertyOp23
 70
     1
102
RTVSPropertyOp24
 70
     1
102
RTVSPropertyOp25
 70
     1
102
RTVSPropertyOp26
 70
     1
102
RTVSPropertyOp27
 70
     1
102
RTVSPropertyOp28
 70
     1
102
RTVSPropertyOp29
 70
     1
102
RTVSPropertyOp30
 70
     1
102
RTVSPropertyOp31
 70
     1
102
RTVSPropertyOp32
 70
     1
102
RTVSPropertyOp33
 70
     1
102
RTVSPropertyOp34
 70
     1
102
RTVSPropertyOp35
 70
     1
102
RTVSPropertyOp36
 70
     1
102
RTVSPropertyOp37
 70
     1
102
RTVSPropertyOp38
 70
     1
102
RTVSPropertyOp39
 70
     1
102
RTVSPropertyOp40
 70
     1
102
RTVSPropertyOp41
 70
     1
102
RTVSPropertyOp42
 70
     1
102
RTVSPropertyOp43
 70
     1
102
RTVSPropertyOp44
 70
     1
102
RTVSPropertyOp45
 70
     1
102
RTVSPropertyOp46
 70
     1
102
RTVSPropertyOp47
 70
     1
102
RTVSPropertyOp48
 70
     1
102
RTVSPropertyOp49
 70
     1
102
RTVSPropertyOp50
 70
     1
102
RTVSPropertyOp51
 70
     0
102
RTVSPropertyOp52
 70
     0
102
RTVSPropertyOp53
 70
     1
102
RTVSPropertyOp54
 70
     1
102
RTVSPropertyOp55
 70
     1
102
RTVSPropertyOp56
 70
     1
102
RTVSPropertyOp57
 70
     1
102
RTVSPost2010Prop28
280
     0
102
RTVSPost2010PropOp28
 70
     1
102
RTVSPost2010Prop29
280
     1
102
RTVSPost2010PropOp29
 70
     1
102
RTVSPost2010Prop30
280
     1
102
RTVSPost2010PropOp30
 70
     1
102
RTVSPost2010Prop31
280
     0
102
RTVSPost2010PropOp31
 70
     1
102
RTVSPost2010Prop32
280
     0
102
RTVSPost2010PropOp32
 70
     1
102
RTVSPost2010Prop33
280
     0
102
RTVSPost2010PropOp33
 70
     1
102
RTVSPost2010Prop34
280
     0
102
RTVSPost2010PropOp34
 70
     1
102
RTVSPost2010Prop35
280
     0
102
RTVSPost2010PropOp35
 70
     1
102
RTVSPost2010Prop36
280
     0
102
RTVSPost2010PropOp36
 70
     1
102
RTVSPost2010Prop37
 90
       50
102
RTVSPost2010PropOp37
 70
     1
102
RTVSPost2010Prop38
140
0.0
102
RTVSPost2010PropOp38
 70
     1
102
RTVSPost2010Prop39
140
1.0
102
RTVSPost2010PropOp39
 70
     1
102
RTVSPost2010Prop40
 90
        0
102
RTVSPost2010PropOp40
 70
     1
102
RTVSPost2010Prop41ColorIndex
 90
       18
102
RTVSPost2010Prop41ColorRGB
 90
        0
102
RTVSPost2010PropOp41
 70
     1
102
RTVSPost2010Prop42
 90
       50
102
RTVSPost2010PropOp42
 70
     1
102
RTVSPost2010Prop43
 90
        3
102
RTVSPost2010PropOp43
 70
     1
102
RTVSPost2010Prop44ColorIndex
 90
        5
102
RTVSPost2010Prop44ColorRGB
 90
      255
102
RTVSPost2010PropOp44
 70
     1
102
RTVSPost2010Prop45
280
     0
102
RTVSPost2010PropOp45
 70
     1
102
RTVSPost2010Prop46
 90
       50
102
RTVSPost2010PropOp46
 70
     1
102
RTVSPost2010Prop47
 90
       50
102
RTVSPost2010PropOp47
 70
     1
102
RTVSPost2010Prop48
 90
       50
102
RTVSPost2010PropOp48
 70
     1
102
RTVSPost2010Prop49
280
     0
102
RTVSPost2010PropOp49
 70
     1
102
RTVSPost2010Prop50
 90
       50
102
RTVSPost2010PropOp50
 70
     1
102
RTVSPost2010Prop51ColorIndex
 90
      256
102
RTVSPost2010Prop51ColorRGB
 90
-16777216
102
RTVSPost2010PropOp51
 70
     0
102
RTVSPost2010Prop52
140
1.0
102
RTVSPost2010PropOp52
 70
     0
102
RTVSPost2010Prop53
 90
        2
102
RTVSPost2010PropOp53
 70
     1
102
RTVSPost2010Prop54
  1
strokes_ogs.tif
102
RTVSPost2010PropOp54
 70
     1
102
RTVSPost2010Prop55
280
     0
102
RTVSPost2010PropOp55
 70
     1
102
RTVSPost2010Prop56
140
1.0
102
RTVSPost2010PropOp56
 70
     1
102
RTVSPost2010Prop57
140
1.0
102
RTVSPost2010PropOp57
 70
     1
  0
XRECORD
  5
3BD1
102
{ACAD_REACTORS
330
3BD0
102
}
330
3BD0
100
AcDbXrecord
280
     1
102
RTVSPropertyOp0
 70
     1
102
RTVSPropertyOp1
 70
     1
102
RTVSPropertyOp2
 70
     1
102
RTVSPropertyOp3
 70
     1
102
RTVSPropertyOp4
 70
     1
102
RTVSPropertyOp5
 70
     1
102
RTVSPropertyOp6
 70
     1
102
RTVSPropertyOp7
 70
     1
102
RTVSPropertyOp8
 70
     1
102
RTVSPropertyOp9
 70
     1
102
RTVSPropertyOp10
 70
     1
102
RTVSPropertyOp11
 70
     1
102
RTVSPropertyOp12
 70
     1
102
RTVSPropertyOp13
 70
     1
102
RTVSPropertyOp14
 70
     1
102
RTVSPropertyOp15
 70
     1
102
RTVSPropertyOp16
 70
     1
102
RTVSPropertyOp17
 70
     1
102
RTVSPropertyOp18
 70
     1
102
RTVSPropertyOp19
 70
     1
102
RTVSPropertyOp20
 70
     1
102
RTVSPropertyOp21
 70
     1
102
RTVSPropertyOp22
 70
     1
102
RTVSPropertyOp23
 70
     1
102
RTVSPropertyOp24
 70
     1
102
RTVSPropertyOp25
 70
     1
102
RTVSPropertyOp26
 70
     1
102
RTVSPropertyOp27
 70
     1
102
RTVSPropertyOp28
 70
     1
102
RTVSPropertyOp29
 70
     1
102
RTVSPropertyOp30
 70
     1
102
RTVSPropertyOp31
 70
     1
102
RTVSPropertyOp32
 70
     1
102
RTVSPropertyOp33
 70
     1
102
RTVSPropertyOp34
 70
     1
102
RTVSPropertyOp35
 70
     1
102
RTVSPropertyOp36
 70
     1
102
RTVSPropertyOp37
 70
     1
102
RTVSPropertyOp38
 70
     1
102
RTVSPropertyOp39
 70
     1
102
RTVSPropertyOp40
 70
     1
102
RTVSPropertyOp41
 70
     1
102
RTVSPropertyOp42
 70
     1
102
RTVSPropertyOp43
 70
     1
102
RTVSPropertyOp44
 70
     1
102
RTVSPropertyOp45
 70
     1
102
RTVSPropertyOp46
 70
     1
102
RTVSPropertyOp47
 70
     1
102
RTVSPropertyOp48
 70
     1
102
RTVSPropertyOp49
 70
     1
102
RTVSPropertyOp50
 70
     1
102
RTVSPropertyOp51
 70
     0
102
RTVSPropertyOp52
 70
     0
102
RTVSPropertyOp53
 70
     1
102
RTVSPropertyOp54
 70
     1
102
RTVSPropertyOp55
 70
     1
102
RTVSPropertyOp56
 70
     1
102
RTVSPropertyOp57
 70
     1
102
RTVSPost2010Prop28
280
     0
102
RTVSPost2010PropOp28
 70
     1
102
RTVSPost2010Prop29
280
     1
102
RTVSPost2010PropOp29
 70
     1
102
RTVSPost2010Prop30
280
     1
102
RTVSPost2010PropOp30
 70
     1
102
RTVSPost2010Prop31
280
     0
102
RTVSPost2010PropOp31
 70
     1
102
RTVSPost2010Prop32
280
     0
102
RTVSPost2010PropOp32
 70
     1
102
RTVSPost2010Prop33
280
     0
102
RTVSPost2010PropOp33
 70
     1
102
RTVSPost2010Prop34
280
     0
102
RTVSPost2010PropOp34
 70
     1
102
RTVSPost2010Prop35
280
     0
102
RTVSPost2010PropOp35
 70
     1
102
RTVSPost2010Prop36
280
     0
102
RTVSPost2010PropOp36
 70
     1
102
RTVSPost2010Prop37
 90
       50
102
RTVSPost2010PropOp37
 70
     1
102
RTVSPost2010Prop38
140
0.0
102
RTVSPost2010PropOp38
 70
     1
102
RTVSPost2010Prop39
140
1.0
102
RTVSPost2010PropOp39
 70
     1
102
RTVSPost2010Prop40
 90
        0
102
RTVSPost2010PropOp40
 70
     1
102
RTVSPost2010Prop41ColorIndex
 90
       18
102
RTVSPost2010Prop41ColorRGB
 90
        0
102
RTVSPost2010PropOp41
 70
     1
102
RTVSPost2010Prop42
 90
       50
102
RTVSPost2010PropOp42
 70
     1
102
RTVSPost2010Prop43
 90
        3
102
RTVSPost2010PropOp43
 70
     1
102
RTVSPost2010Prop44ColorIndex
 90
        5
102
RTVSPost2010Prop44ColorRGB
 90
      255
102
RTVSPost2010PropOp44
 70
     1
102
RTVSPost2010Prop45
280
     0
102
RTVSPost2010PropOp45
 70
     1
102
RTVSPost2010Prop46
 90
       50
102
RTVSPost2010PropOp46
 70
     1
102
RTVSPost2010Prop47
 90
       50
102
RTVSPost2010PropOp47
 70
     1
102
RTVSPost2010Prop48
 90
       50
102
RTVSPost2010PropOp48
 70
     1
102
RTVSPost2010Prop49
280
     0
102
RTVSPost2010PropOp49
 70
     1
102
RTVSPost2010Prop50
 90
       50
102
RTVSPost2010PropOp50
 70
     1
102
RTVSPost2010Prop51ColorIndex
 90
      256
102
RTVSPost2010Prop51ColorRGB
 90
-16777216
102
RTVSPost2010PropOp51
 70
     0
102
RTVSPost2010Prop52
140
1.0
102
RTVSPost2010PropOp52
 70
     0
102
RTVSPost2010Prop53
 90
        2
102
RTVSPost2010PropOp53
 70
     1
102
RTVSPost2010Prop54
  1
strokes_ogs.tif
102
RTVSPost2010PropOp54
 70
     1
102
RTVSPost2010Prop55
280
     0
102
RTVSPost2010PropOp55
 70
     1
102
RTVSPost2010Prop56
140
1.0
102
RTVSPost2010PropOp56
 70
     1
102
RTVSPost2010Prop57
140
1.0
102
RTVSPost2010PropOp57
 70
     1
  0
XRECORD
  5
3BCB
102
{ACAD_REACTORS
330
3BCA
102
}
330
3BCA
100
AcDbXrecord
280
     1
102
RTVSPropertyOp0
 70
     1
102
RTVSPropertyOp1
 70
     1
102
RTVSPropertyOp2
 70
     1
102
RTVSPropertyOp3
 70
     1
102
RTVSPropertyOp4
 70
     1
102
RTVSPropertyOp5
 70
     1
102
RTVSPropertyOp6
 70
     1
102
RTVSPropertyOp7
 70
     1
102
RTVSPropertyOp8
 70
     1
102
RTVSPropertyOp9
 70
     1
102
RTVSPropertyOp10
 70
     1
102
RTVSPropertyOp11
 70
     1
102
RTVSPropertyOp12
 70
     1
102
RTVSPropertyOp13
 70
     1
102
RTVSPropertyOp14
 70
     1
102
RTVSPropertyOp15
 70
     1
102
RTVSPropertyOp16
 70
     1
102
RTVSPropertyOp17
 70
     1
102
RTVSPropertyOp18
 70
     1
102
RTVSPropertyOp19
 70
     1
102
RTVSPropertyOp20
 70
     1
102
RTVSPropertyOp21
 70
     1
102
RTVSPropertyOp22
 70
     1
102
RTVSPropertyOp23
 70
     1
102
RTVSPropertyOp24
 70
     1
102
RTVSPropertyOp25
 70
     1
102
RTVSPropertyOp26
 70
     1
102
RTVSPropertyOp27
 70
     1
102
RTVSPropertyOp28
 70
     1
102
RTVSPropertyOp29
 70
     1
102
RTVSPropertyOp30
 70
     1
102
RTVSPropertyOp31
 70
     1
102
RTVSPropertyOp32
 70
     1
102
RTVSPropertyOp33
 70
     1
102
RTVSPropertyOp34
 70
     1
102
RTVSPropertyOp35
 70
     1
102
RTVSPropertyOp36
 70
     1
102
RTVSPropertyOp37
 70
     1
102
RTVSPropertyOp38
 70
     1
102
RTVSPropertyOp39
 70
     1
102
RTVSPropertyOp40
 70
     1
102
RTVSPropertyOp41
 70
     1
102
RTVSPropertyOp42
 70
     1
102
RTVSPropertyOp43
 70
     1
102
RTVSPropertyOp44
 70
     1
102
RTVSPropertyOp45
 70
     1
102
RTVSPropertyOp46
 70
     1
102
RTVSPropertyOp47
 70
     1
102
RTVSPropertyOp48
 70
     1
102
RTVSPropertyOp49
 70
     1
102
RTVSPropertyOp50
 70
     1
102
RTVSPropertyOp51
 70
     0
102
RTVSPropertyOp52
 70
     0
102
RTVSPropertyOp53
 70
     1
102
RTVSPropertyOp54
 70
     1
102
RTVSPropertyOp55
 70
     1
102
RTVSPropertyOp56
 70
     1
102
RTVSPropertyOp57
 70
     1
102
RTVSPost2010Prop28
280
     0
102
RTVSPost2010PropOp28
 70
     1
102
RTVSPost2010Prop29
280
     1
102
RTVSPost2010PropOp29
 70
     1
102
RTVSPost2010Prop30
280
     1
102
RTVSPost2010PropOp30
 70
     1
102
RTVSPost2010Prop31
280
     0
102
RTVSPost2010PropOp31
 70
     1
102
RTVSPost2010Prop32
280
     0
102
RTVSPost2010PropOp32
 70
     1
102
RTVSPost2010Prop33
280
     0
102
RTVSPost2010PropOp33
 70
     1
102
RTVSPost2010Prop34
280
     0
102
RTVSPost2010PropOp34
 70
     1
102
RTVSPost2010Prop35
280
     0
102
RTVSPost2010PropOp35
 70
     1
102
RTVSPost2010Prop36
280
     0
102
RTVSPost2010PropOp36
 70
     1
102
RTVSPost2010Prop37
 90
       50
102
RTVSPost2010PropOp37
 70
     1
102
RTVSPost2010Prop38
140
0.0
102
RTVSPost2010PropOp38
 70
     1
102
RTVSPost2010Prop39
140
1.0
102
RTVSPost2010PropOp39
 70
     1
102
RTVSPost2010Prop40
 90
        0
102
RTVSPost2010PropOp40
 70
     1
102
RTVSPost2010Prop41ColorIndex
 90
       18
102
RTVSPost2010Prop41ColorRGB
 90
        0
102
RTVSPost2010PropOp41
 70
     1
102
RTVSPost2010Prop42
 90
       50
102
RTVSPost2010PropOp42
 70
     1
102
RTVSPost2010Prop43
 90
        3
102
RTVSPost2010PropOp43
 70
     1
102
RTVSPost2010Prop44ColorIndex
 90
        5
102
RTVSPost2010Prop44ColorRGB
 90
      255
102
RTVSPost2010PropOp44
 70
     1
102
RTVSPost2010Prop45
280
     0
102
RTVSPost2010PropOp45
 70
     1
102
RTVSPost2010Prop46
 90
       50
102
RTVSPost2010PropOp46
 70
     1
102
RTVSPost2010Prop47
 90
       50
102
RTVSPost2010PropOp47
 70
     1
102
RTVSPost2010Prop48
 90
       50
102
RTVSPost2010PropOp48
 70
     1
102
RTVSPost2010Prop49
280
     0
102
RTVSPost2010PropOp49
 70
     1
102
RTVSPost2010Prop50
 90
       50
102
RTVSPost2010PropOp50
 70
     1
102
RTVSPost2010Prop51ColorIndex
 90
      256
102
RTVSPost2010Prop51ColorRGB
 90
-16777216
102
RTVSPost2010PropOp51
 70
     0
102
RTVSPost2010Prop52
140
1.0
102
RTVSPost2010PropOp52
 70
     0
102
RTVSPost2010Prop53
 90
        2
102
RTVSPost2010PropOp53
 70
     1
102
RTVSPost2010Prop54
  1
strokes_ogs.tif
102
RTVSPost2010PropOp54
 70
     1
102
RTVSPost2010Prop55
280
     0
102
RTVSPost2010PropOp55
 70
     1
102
RTVSPost2010Prop56
140
1.0
102
RTVSPost2010PropOp56
 70
     1
102
RTVSPost2010Prop57
140
1.0
102
RTVSPost2010PropOp57
 70
     1
  0
XRECORD
  5
3BCD
102
{ACAD_REACTORS
330
3BCC
102
}
330
3BCC
100
AcDbXrecord
280
     1
102
RTVSPropertyOp0
 70
     1
102
RTVSPropertyOp1
 70
     1
102
RTVSPropertyOp2
 70
     1
102
RTVSPropertyOp3
 70
     1
102
RTVSPropertyOp4
 70
     1
102
RTVSPropertyOp5
 70
     1
102
RTVSPropertyOp6
 70
     1
102
RTVSPropertyOp7
 70
     1
102
RTVSPropertyOp8
 70
     1
102
RTVSPropertyOp9
 70
     1
102
RTVSPropertyOp10
 70
     1
102
RTVSPropertyOp11
 70
     1
102
RTVSPropertyOp12
 70
     1
102
RTVSPropertyOp13
 70
     1
102
RTVSPropertyOp14
 70
     1
102
RTVSPropertyOp15
 70
     1
102
RTVSPropertyOp16
 70
     1
102
RTVSPropertyOp17
 70
     1
102
RTVSPropertyOp18
 70
     1
102
RTVSPropertyOp19
 70
     1
102
RTVSPropertyOp20
 70
     1
102
RTVSPropertyOp21
 70
     1
102
RTVSPropertyOp22
 70
     1
102
RTVSPropertyOp23
 70
     1
102
RTVSPropertyOp24
 70
     1
102
RTVSPropertyOp25
 70
     1
102
RTVSPropertyOp26
 70
     1
102
RTVSPropertyOp27
 70
     1
102
RTVSPropertyOp28
 70
     1
102
RTVSPropertyOp29
 70
     1
102
RTVSPropertyOp30
 70
     1
102
RTVSPropertyOp31
 70
     1
102
RTVSPropertyOp32
 70
     1
102
RTVSPropertyOp33
 70
     1
102
RTVSPropertyOp34
 70
     1
102
RTVSPropertyOp35
 70
     1
102
RTVSPropertyOp36
 70
     1
102
RTVSPropertyOp37
 70
     1
102
RTVSPropertyOp38
 70
     1
102
RTVSPropertyOp39
 70
     1
102
RTVSPropertyOp40
 70
     1
102
RTVSPropertyOp41
 70
     1
102
RTVSPropertyOp42
 70
     1
102
RTVSPropertyOp43
 70
     1
102
RTVSPropertyOp44
 70
     1
102
RTVSPropertyOp45
 70
     1
102
RTVSPropertyOp46
 70
     1
102
RTVSPropertyOp47
 70
     1
102
RTVSPropertyOp48
 70
     1
102
RTVSPropertyOp49
 70
     1
102
RTVSPropertyOp50
 70
     1
102
RTVSPropertyOp51
 70
     0
102
RTVSPropertyOp52
 70
     0
102
RTVSPropertyOp53
 70
     1
102
RTVSPropertyOp54
 70
     1
102
RTVSPropertyOp55
 70
     1
102
RTVSPropertyOp56
 70
     1
102
RTVSPropertyOp57
 70
     1
102
RTVSPost2010Prop28
280
     0
102
RTVSPost2010PropOp28
 70
     1
102
RTVSPost2010Prop29
280
     1
102
RTVSPost2010PropOp29
 70
     1
102
RTVSPost2010Prop30
280
     1
102
RTVSPost2010PropOp30
 70
     1
102
RTVSPost2010Prop31
280
     0
102
RTVSPost2010PropOp31
 70
     1
102
RTVSPost2010Prop32
280
     0
102
RTVSPost2010PropOp32
 70
     1
102
RTVSPost2010Prop33
280
     0
102
RTVSPost2010PropOp33
 70
     1
102
RTVSPost2010Prop34
280
     0
102
RTVSPost2010PropOp34
 70
     1
102
RTVSPost2010Prop35
280
     0
102
RTVSPost2010PropOp35
 70
     1
102
RTVSPost2010Prop36
280
     0
102
RTVSPost2010PropOp36
 70
     1
102
RTVSPost2010Prop37
 90
       50
102
RTVSPost2010PropOp37
 70
     1
102
RTVSPost2010Prop38
140
0.0
102
RTVSPost2010PropOp38
 70
     1
102
RTVSPost2010Prop39
140
1.0
102
RTVSPost2010PropOp39
 70
     1
102
RTVSPost2010Prop40
 90
        0
102
RTVSPost2010PropOp40
 70
     1
102
RTVSPost2010Prop41ColorIndex
 90
       18
102
RTVSPost2010Prop41ColorRGB
 90
        0
102
RTVSPost2010PropOp41
 70
     1
102
RTVSPost2010Prop42
 90
       50
102
RTVSPost2010PropOp42
 70
     1
102
RTVSPost2010Prop43
 90
        3
102
RTVSPost2010PropOp43
 70
     1
102
RTVSPost2010Prop44ColorIndex
 90
        5
102
RTVSPost2010Prop44ColorRGB
 90
      255
102
RTVSPost2010PropOp44
 70
     1
102
RTVSPost2010Prop45
280
     0
102
RTVSPost2010PropOp45
 70
     1
102
RTVSPost2010Prop46
 90
       50
102
RTVSPost2010PropOp46
 70
     1
102
RTVSPost2010Prop47
 90
       50
102
RTVSPost2010PropOp47
 70
     1
102
RTVSPost2010Prop48
 90
       50
102
RTVSPost2010PropOp48
 70
     1
102
RTVSPost2010Prop49
280
     0
102
RTVSPost2010PropOp49
 70
     1
102
RTVSPost2010Prop50
 90
       50
102
RTVSPost2010PropOp50
 70
     1
102
RTVSPost2010Prop51ColorIndex
 90
      256
102
RTVSPost2010Prop51ColorRGB
 90
-16777216
102
RTVSPost2010PropOp51
 70
     0
102
RTVSPost2010Prop52
140
1.0
102
RTVSPost2010PropOp52
 70
     0
102
RTVSPost2010Prop53
 90
        2
102
RTVSPost2010PropOp53
 70
     1
102
RTVSPost2010Prop54
  1
strokes_ogs.tif
102
RTVSPost2010PropOp54
 70
     1
102
RTVSPost2010Prop55
280
     0
102
RTVSPost2010PropOp55
 70
     1
102
RTVSPost2010Prop56
140
1.0
102
RTVSPost2010PropOp56
 70
     1
102
RTVSPost2010Prop57
140
1.0
102
RTVSPost2010PropOp57
 70
     1
  0
XRECORD
  5
3BBD
102
{ACAD_REACTORS
330
3BBC
102
}
330
3BBC
100
AcDbXrecord
280
     1
102
RTVSPropertyOp0
 70
     1
102
RTVSPropertyOp1
 70
     1
102
RTVSPropertyOp2
 70
     1
102
RTVSPropertyOp3
 70
     1
102
RTVSPropertyOp4
 70
     1
102
RTVSPropertyOp5
 70
     1
102
RTVSPropertyOp6
 70
     1
102
RTVSPropertyOp7
 70
     1
102
RTVSPropertyOp8
 70
     1
102
RTVSPropertyOp9
 70
     1
102
RTVSPropertyOp10
 70
     1
102
RTVSPropertyOp11
 70
     1
102
RTVSPropertyOp12
 70
     1
102
RTVSPropertyOp13
 70
     1
102
RTVSPropertyOp14
 70
     1
102
RTVSPropertyOp15
 70
     1
102
RTVSPropertyOp16
 70
     1
102
RTVSPropertyOp17
 70
     1
102
RTVSPropertyOp18
 70
     1
102
RTVSPropertyOp19
 70
     1
102
RTVSPropertyOp20
 70
     1
102
RTVSPropertyOp21
 70
     1
102
RTVSPropertyOp22
 70
     1
102
RTVSPropertyOp23
 70
     1
102
RTVSPropertyOp24
 70
     1
102
RTVSPropertyOp25
 70
     1
102
RTVSPropertyOp26
 70
     1
102
RTVSPropertyOp27
 70
     1
102
RTVSPropertyOp28
 70
     1
102
RTVSPropertyOp29
 70
     1
102
RTVSPropertyOp30
 70
     1
102
RTVSPropertyOp31
 70
     1
102
RTVSPropertyOp32
 70
     1
102
RTVSPropertyOp33
 70
     1
102
RTVSPropertyOp34
 70
     1
102
RTVSPropertyOp35
 70
     1
102
RTVSPropertyOp36
 70
     1
102
RTVSPropertyOp37
 70
     1
102
RTVSPropertyOp38
 70
     1
102
RTVSPropertyOp39
 70
     1
102
RTVSPropertyOp40
 70
     1
102
RTVSPropertyOp41
 70
     1
102
RTVSPropertyOp42
 70
     1
102
RTVSPropertyOp43
 70
     1
102
RTVSPropertyOp44
 70
     1
102
RTVSPropertyOp45
 70
     1
102
RTVSPropertyOp46
 70
     1
102
RTVSPropertyOp47
 70
     1
102
RTVSPropertyOp48
 70
     1
102
RTVSPropertyOp49
 70
     1
102
RTVSPropertyOp50
 70
     1
102
RTVSPropertyOp51
 70
     0
102
RTVSPropertyOp52
 70
     0
102
RTVSPropertyOp53
 70
     1
102
RTVSPropertyOp54
 70
     1
102
RTVSPropertyOp55
 70
     1
102
RTVSPropertyOp56
 70
     1
102
RTVSPropertyOp57
 70
     1
102
RTVSPost2010Prop28
280
     0
102
RTVSPost2010PropOp28
 70
     1
102
RTVSPost2010Prop29
280
     1
102
RTVSPost2010PropOp29
 70
     1
102
RTVSPost2010Prop30
280
     1
102
RTVSPost2010PropOp30
 70
     1
102
RTVSPost2010Prop31
280
     0
102
RTVSPost2010PropOp31
 70
     1
102
RTVSPost2010Prop32
280
     0
102
RTVSPost2010PropOp32
 70
     1
102
RTVSPost2010Prop33
280
     0
102
RTVSPost2010PropOp33
 70
     1
102
RTVSPost2010Prop34
280
     0
102
RTVSPost2010PropOp34
 70
     1
102
RTVSPost2010Prop35
280
     0
102
RTVSPost2010PropOp35
 70
     1
102
RTVSPost2010Prop36
280
     0
102
RTVSPost2010PropOp36
 70
     1
102
RTVSPost2010Prop37
 90
       50
102
RTVSPost2010PropOp37
 70
     1
102
RTVSPost2010Prop38
140
0.0
102
RTVSPost2010PropOp38
 70
     1
102
RTVSPost2010Prop39
140
1.0
102
RTVSPost2010PropOp39
 70
     1
102
RTVSPost2010Prop40
 90
        0
102
RTVSPost2010PropOp40
 70
     1
102
RTVSPost2010Prop41ColorIndex
 90
       18
102
RTVSPost2010Prop41ColorRGB
 90
        0
102
RTVSPost2010PropOp41
 70
     1
102
RTVSPost2010Prop42
 90
       50
102
RTVSPost2010PropOp42
 70
     1
102
RTVSPost2010Prop43
 90
        3
102
RTVSPost2010PropOp43
 70
     1
102
RTVSPost2010Prop44ColorIndex
 90
        5
102
RTVSPost2010Prop44ColorRGB
 90
      255
102
RTVSPost2010PropOp44
 70
     1
102
RTVSPost2010Prop45
280
     0
102
RTVSPost2010PropOp45
 70
     1
102
RTVSPost2010Prop46
 90
       50
102
RTVSPost2010PropOp46
 70
     1
102
RTVSPost2010Prop47
 90
       50
102
RTVSPost2010PropOp47
 70
     1
102
RTVSPost2010Prop48
 90
       50
102
RTVSPost2010PropOp48
 70
     1
102
RTVSPost2010Prop49
280
     0
102
RTVSPost2010PropOp49
 70
     1
102
RTVSPost2010Prop50
 90
       50
102
RTVSPost2010PropOp50
 70
     1
102
RTVSPost2010Prop51ColorIndex
 90
      256
102
RTVSPost2010Prop51ColorRGB
 90
-16777216
102
RTVSPost2010PropOp51
 70
     0
102
RTVSPost2010Prop52
140
1.0
102
RTVSPost2010PropOp52
 70
     0
102
RTVSPost2010Prop53
 90
        2
102
RTVSPost2010PropOp53
 70
     1
102
RTVSPost2010Prop54
  1
strokes_ogs.tif
102
RTVSPost2010PropOp54
 70
     1
102
RTVSPost2010Prop55
280
     0
102
RTVSPost2010PropOp55
 70
     1
102
RTVSPost2010Prop56
140
1.0
102
RTVSPost2010PropOp56
 70
     1
102
RTVSPost2010Prop57
140
1.0
102
RTVSPost2010PropOp57
 70
     1
  0
XRECORD
  5
3BAF
102
{ACAD_REACTORS
330
3BAE
102
}
330
3BAE
100
AcDbXrecord
280
     1
102
RTVSPropertyOp0
 70
     1
102
RTVSPropertyOp1
 70
     1
102
RTVSPropertyOp2
 70
     1
102
RTVSPropertyOp3
 70
     1
102
RTVSPropertyOp4
 70
     1
102
RTVSPropertyOp5
 70
     1
102
RTVSPropertyOp6
 70
     1
102
RTVSPropertyOp7
 70
     1
102
RTVSPropertyOp8
 70
     1
102
RTVSPropertyOp9
 70
     1
102
RTVSPropertyOp10
 70
     1
102
RTVSPropertyOp11
 70
     1
102
RTVSPropertyOp12
 70
     1
102
RTVSPropertyOp13
 70
     1
102
RTVSPropertyOp14
 70
     1
102
RTVSPropertyOp15
 70
     1
102
RTVSPropertyOp16
 70
     1
102
RTVSPropertyOp17
 70
     1
102
RTVSPropertyOp18
 70
     1
102
RTVSPropertyOp19
 70
     1
102
RTVSPropertyOp20
 70
     1
102
RTVSPropertyOp21
 70
     1
102
RTVSPropertyOp22
 70
     1
102
RTVSPropertyOp23
 70
     1
102
RTVSPropertyOp24
 70
     1
102
RTVSPropertyOp25
 70
     1
102
RTVSPropertyOp26
 70
     1
102
RTVSPropertyOp27
 70
     1
102
RTVSPropertyOp28
 70
     1
102
RTVSPropertyOp29
 70
     1
102
RTVSPropertyOp30
 70
     1
102
RTVSPropertyOp31
 70
     1
102
RTVSPropertyOp32
 70
     1
102
RTVSPropertyOp33
 70
     1
102
RTVSPropertyOp34
 70
     1
102
RTVSPropertyOp35
 70
     1
102
RTVSPropertyOp36
 70
     1
102
RTVSPropertyOp37
 70
     1
102
RTVSPropertyOp38
 70
     1
102
RTVSPropertyOp39
 70
     1
102
RTVSPropertyOp40
 70
     1
102
RTVSPropertyOp41
 70
     1
102
RTVSPropertyOp42
 70
     1
102
RTVSPropertyOp43
 70
     1
102
RTVSPropertyOp44
 70
     1
102
RTVSPropertyOp45
 70
     1
102
RTVSPropertyOp46
 70
     1
102
RTVSPropertyOp47
 70
     1
102
RTVSPropertyOp48
 70
     1
102
RTVSPropertyOp49
 70
     1
102
RTVSPropertyOp50
 70
     1
102
RTVSPropertyOp51
 70
     0
102
RTVSPropertyOp52
 70
     0
102
RTVSPropertyOp53
 70
     1
102
RTVSPropertyOp54
 70
     1
102
RTVSPropertyOp55
 70
     1
102
RTVSPropertyOp56
 70
     1
102
RTVSPropertyOp57
 70
     1
102
RTVSPost2010Prop28
280
     0
102
RTVSPost2010PropOp28
 70
     1
102
RTVSPost2010Prop29
280
     1
102
RTVSPost2010PropOp29
 70
     1
102
RTVSPost2010Prop30
280
     1
102
RTVSPost2010PropOp30
 70
     1
102
RTVSPost2010Prop31
280
     0
102
RTVSPost2010PropOp31
 70
     1
102
RTVSPost2010Prop32
280
     0
102
RTVSPost2010PropOp32
 70
     1
102
RTVSPost2010Prop33
280
     0
102
RTVSPost2010PropOp33
 70
     1
102
RTVSPost2010Prop34
280
     0
102
RTVSPost2010PropOp34
 70
     1
102
RTVSPost2010Prop35
280
     0
102
RTVSPost2010PropOp35
 70
     1
102
RTVSPost2010Prop36
280
     0
102
RTVSPost2010PropOp36
 70
     1
102
RTVSPost2010Prop37
 90
       50
102
RTVSPost2010PropOp37
 70
     1
102
RTVSPost2010Prop38
140
0.0
102
RTVSPost2010PropOp38
 70
     1
102
RTVSPost2010Prop39
140
1.0
102
RTVSPost2010PropOp39
 70
     1
102
RTVSPost2010Prop40
 90
        0
102
RTVSPost2010PropOp40
 70
     1
102
RTVSPost2010Prop41ColorIndex
 90
       18
102
RTVSPost2010Prop41ColorRGB
 90
        0
102
RTVSPost2010PropOp41
 70
     1
102
RTVSPost2010Prop42
 90
       50
102
RTVSPost2010PropOp42
 70
     1
102
RTVSPost2010Prop43
 90
        3
102
RTVSPost2010PropOp43
 70
     1
102
RTVSPost2010Prop44ColorIndex
 90
        5
102
RTVSPost2010Prop44ColorRGB
 90
      255
102
RTVSPost2010PropOp44
 70
     1
102
RTVSPost2010Prop45
280
     0
102
RTVSPost2010PropOp45
 70
     1
102
RTVSPost2010Prop46
 90
       50
102
RTVSPost2010PropOp46
 70
     1
102
RTVSPost2010Prop47
 90
       50
102
RTVSPost2010PropOp47
 70
     1
102
RTVSPost2010Prop48
 90
       50
102
RTVSPost2010PropOp48
 70
     1
102
RTVSPost2010Prop49
280
     0
102
RTVSPost2010PropOp49
 70
     1
102
RTVSPost2010Prop50
 90
       50
102
RTVSPost2010PropOp50
 70
     1
102
RTVSPost2010Prop51ColorIndex
 90
      256
102
RTVSPost2010Prop51ColorRGB
 90
-16777216
102
RTVSPost2010PropOp51
 70
     0
102
RTVSPost2010Prop52
140
1.0
102
RTVSPost2010PropOp52
 70
     0
102
RTVSPost2010Prop53
 90
        2
102
RTVSPost2010PropOp53
 70
     1
102
RTVSPost2010Prop54
  1
strokes_ogs.tif
102
RTVSPost2010PropOp54
 70
     1
102
RTVSPost2010Prop55
280
     0
102
RTVSPost2010PropOp55
 70
     1
102
RTVSPost2010Prop56
140
1.0
102
RTVSPost2010PropOp56
 70
     1
102
RTVSPost2010Prop57
140
1.0
102
RTVSPost2010PropOp57
 70
     1
  0
XRECORD
  5
3BCF
102
{ACAD_REACTORS
330
3BCE
102
}
330
3BCE
100
AcDbXrecord
280
     1
102
RTVSPropertyOp0
 70
     1
102
RTVSPropertyOp1
 70
     1
102
RTVSPropertyOp2
 70
     1
102
RTVSPropertyOp3
 70
     1
102
RTVSPropertyOp4
 70
     1
102
RTVSPropertyOp5
 70
     1
102
RTVSPropertyOp6
 70
     1
102
RTVSPropertyOp7
 70
     1
102
RTVSPropertyOp8
 70
     1
102
RTVSPropertyOp9
 70
     1
102
RTVSPropertyOp10
 70
     1
102
RTVSPropertyOp11
 70
     1
102
RTVSPropertyOp12
 70
     1
102
RTVSPropertyOp13
 70
     1
102
RTVSPropertyOp14
 70
     1
102
RTVSPropertyOp15
 70
     1
102
RTVSPropertyOp16
 70
     1
102
RTVSPropertyOp17
 70
     1
102
RTVSPropertyOp18
 70
     1
102
RTVSPropertyOp19
 70
     1
102
RTVSPropertyOp20
 70
     1
102
RTVSPropertyOp21
 70
     1
102
RTVSPropertyOp22
 70
     1
102
RTVSPropertyOp23
 70
     1
102
RTVSPropertyOp24
 70
     1
102
RTVSPropertyOp25
 70
     1
102
RTVSPropertyOp26
 70
     1
102
RTVSPropertyOp27
 70
     1
102
RTVSPropertyOp28
 70
     1
102
RTVSPropertyOp29
 70
     1
102
RTVSPropertyOp30
 70
     1
102
RTVSPropertyOp31
 70
     1
102
RTVSPropertyOp32
 70
     1
102
RTVSPropertyOp33
 70
     1
102
RTVSPropertyOp34
 70
     1
102
RTVSPropertyOp35
 70
     1
102
RTVSPropertyOp36
 70
     1
102
RTVSPropertyOp37
 70
     1
102
RTVSPropertyOp38
 70
     1
102
RTVSPropertyOp39
 70
     1
102
RTVSPropertyOp40
 70
     1
102
RTVSPropertyOp41
 70
     1
102
RTVSPropertyOp42
 70
     1
102
RTVSPropertyOp43
 70
     1
102
RTVSPropertyOp44
 70
     1
102
RTVSPropertyOp45
 70
     1
102
RTVSPropertyOp46
 70
     1
102
RTVSPropertyOp47
 70
     1
102
RTVSPropertyOp48
 70
     1
102
RTVSPropertyOp49
 70
     1
102
RTVSPropertyOp50
 70
     1
102
RTVSPropertyOp51
 70
     0
102
RTVSPropertyOp52
 70
     0
102
RTVSPropertyOp53
 70
     1
102
RTVSPropertyOp54
 70
     1
102
RTVSPropertyOp55
 70
     1
102
RTVSPropertyOp56
 70
     1
102
RTVSPropertyOp57
 70
     1
102
RTVSPost2010Prop28
280
     0
102
RTVSPost2010PropOp28
 70
     1
102
RTVSPost2010Prop29
280
     1
102
RTVSPost2010PropOp29
 70
     1
102
RTVSPost2010Prop30
280
     1
102
RTVSPost2010PropOp30
 70
     1
102
RTVSPost2010Prop31
280
     0
102
RTVSPost2010PropOp31
 70
     1
102
RTVSPost2010Prop32
280
     0
102
RTVSPost2010PropOp32
 70
     1
102
RTVSPost2010Prop33
280
     0
102
RTVSPost2010PropOp33
 70
     1
102
RTVSPost2010Prop34
280
     0
102
RTVSPost2010PropOp34
 70
     1
102
RTVSPost2010Prop35
280
     0
102
RTVSPost2010PropOp35
 70
     1
102
RTVSPost2010Prop36
280
     0
102
RTVSPost2010PropOp36
 70
     1
102
RTVSPost2010Prop37
 90
       50
102
RTVSPost2010PropOp37
 70
     1
102
RTVSPost2010Prop38
140
0.0
102
RTVSPost2010PropOp38
 70
     1
102
RTVSPost2010Prop39
140
1.0
102
RTVSPost2010PropOp39
 70
     1
102
RTVSPost2010Prop40
 90
        0
102
RTVSPost2010PropOp40
 70
     1
102
RTVSPost2010Prop41ColorIndex
 90
       18
102
RTVSPost2010Prop41ColorRGB
 90
        0
102
RTVSPost2010PropOp41
 70
     1
102
RTVSPost2010Prop42
 90
       50
102
RTVSPost2010PropOp42
 70
     1
102
RTVSPost2010Prop43
 90
        3
102
RTVSPost2010PropOp43
 70
     1
102
RTVSPost2010Prop44ColorIndex
 90
        5
102
RTVSPost2010Prop44ColorRGB
 90
      255
102
RTVSPost2010PropOp44
 70
     1
102
RTVSPost2010Prop45
280
     0
102
RTVSPost2010PropOp45
 70
     1
102
RTVSPost2010Prop46
 90
       50
102
RTVSPost2010PropOp46
 70
     1
102
RTVSPost2010Prop47
 90
       50
102
RTVSPost2010PropOp47
 70
     1
102
RTVSPost2010Prop48
 90
       50
102
RTVSPost2010PropOp48
 70
     1
102
RTVSPost2010Prop49
280
     0
102
RTVSPost2010PropOp49
 70
     1
102
RTVSPost2010Prop50
 90
       50
102
RTVSPost2010PropOp50
 70
     1
102
RTVSPost2010Prop51ColorIndex
 90
      256
102
RTVSPost2010Prop51ColorRGB
 90
-16777216
102
RTVSPost2010PropOp51
 70
     0
102
RTVSPost2010Prop52
140
1.0
102
RTVSPost2010PropOp52
 70
     0
102
RTVSPost2010Prop53
 90
        2
102
RTVSPost2010PropOp53
 70
     1
102
RTVSPost2010Prop54
  1
strokes_ogs.tif
102
RTVSPost2010PropOp54
 70
     1
102
RTVSPost2010Prop55
280
     0
102
RTVSPost2010PropOp55
 70
     1
102
RTVSPost2010Prop56
140
1.0
102
RTVSPost2010PropOp56
 70
     1
102
RTVSPost2010Prop57
140
1.0
102
RTVSPost2010PropOp57
 70
     1
  0
ENDSEC
  0
EOF
